  0
SECTION
  2
HEADER
  9
$ACADVER
  1
AC1015
  9
$ACADMAINTVER
 70
     6
  9
$DWGCODEPAGE
  3
ANSI_1252
  9
$INSBASE
 10
0.0
 20
0.0
 30
0.0
  9
$EXTMIN
 10
0.0
 20
0.0
 30
0.0
  9
$EXTMAX
 10
94.0
 20
54.0
 30
0.0
  9
$LIMMIN
 10
0.0
 20
0.0
  9
$LIMMAX
 10
94.0
 20
54.0
  9
$ORTHOMODE
 70
     0
  9
$REGENMODE
 70
     1
  9
$FILLMODE
 70
     1
  9
$QTEXTMODE
 70
     0
  9
$MIRRTEXT
 70
     1
  9
$LTSCALE
 40
1.0
  9
$ATTMODE
 70
     1
  9
$TEXTSIZE
 40
0.1666666667
  9
$TRACEWID
 40
0.05
  9
$TEXTSTYLE
  7
Standard
  9
$CLAYER
  8
0
  9
$CELTYPE
  6
ByLayer
  9
$CECOLOR
 62
   256
  9
$CELTSCALE
 40
1.0
  9
$DISPSILH
 70
     0
  9
$DIMSCALE
 40
1.0
  9
$DIMASZ
 40
0.09
  9
$DIMEXO
 40
0.05
  9
$DIMDLI
 40
0.38
  9
$DIMRND
 40
0.0
  9
$DIMDLE
 40
0.0
  9
$DIMEXE
 40
0.0625
  9
$DIMTP
 40
0.0
  9
$DIMTM
 40
0.0
  9
$DIMTXT
 40
0.1666666667
  9
$DIMCEN
 40
0.09
  9
$DIMTSZ
 40
0.0
  9
$DIMTOL
 70
     0
  9
$DIMLIM
 70
     0
  9
$DIMTIH
 70
     1
  9
$DIMTOH
 70
     1
  9
$DIMSE1
 70
     0
  9
$DIMSE2
 70
     0
  9
$DIMTAD
 70
     0
  9
$DIMZIN
 70
     0
  9
$DIMBLK
  1

  9
$DIMASO
 70
     1
  9
$DIMSHO
 70
     1
  9
$DIMPOST
  1

  9
$DIMAPOST
  1

  9
$DIMALT
 70
     0
  9
$DIMALTD
 70
     2
  9
$DIMALTF
 40
25.4
  9
$DIMLFAC
 40
24.0
  9
$DIMTOFL
 70
     0
  9
$DIMTVP
 40
0.0
  9
$DIMTIX
 70
     0
  9
$DIMSOXD
 70
     0
  9
$DIMSAH
 70
     0
  9
$DIMBLK1
  1

  9
$DIMBLK2
  1

  9
$DIMSTYLE
  2
Standard
  9
$DIMCLRD
 70
     0
  9
$DIMCLRE
 70
     0
  9
$DIMCLRT
 70
     0
  9
$DIMTFAC
 40
1.0
  9
$DIMGAP
 40
0.06
  9
$DIMJUST
 70
     0
  9
$DIMSD1
 70
     0
  9
$DIMSD2
 70
     0
  9
$DIMTOLJ
 70
     1
  9
$DIMTZIN
 70
     0
  9
$DIMALTZ
 70
     0
  9
$DIMALTTZ
 70
     0
  9
$DIMUPT
 70
     0
  9
$DIMDEC
 70
     2
  9
$DIMTDEC
 70
     2
  9
$DIMALTU
 70
     2
  9
$DIMALTTD
 70
     2
  9
$DIMTXSTY
  7
Standard
  9
$DIMAUNIT
 70
     0
  9
$DIMADEC
 70
     0
  9
$DIMALTRND
 40
0.0
  9
$DIMAZIN
 70
     0
  9
$DIMDSEP
 70
    46
  9
$DIMATFIT
 70
     3
  9
$DIMFRAC
 70
     0
  9
$DIMLDRBLK
  1

  9
$DIMLUNIT
 70
     2
  9
$DIMLWD
 70
    -2
  9
$DIMLWE
 70
    -2
  9
$DIMTMOVE
 70
     0
  9
$LUNITS
 70
     2
  9
$LUPREC
 70
     2
  9
$SKETCHINC
 40
0.1
  9
$FILLETRAD
 40
0.5
  9
$AUNITS
 70
     0
  9
$AUPREC
 70
     0
  9
$MENU
  1
.
  9
$ELEVATION
 40
0.0
  9
$PELEVATION
 40
0.0
  9
$THICKNESS
 40
0.0
  9
$LIMCHECK
 70
     0
  9
$CHAMFERA
 40
0.5
  9
$CHAMFERB
 40
0.5
  9
$CHAMFERC
 40
1.0
  9
$CHAMFERD
 40
0.0
  9
$SKPOLY
 70
     0
  9
$TDCREATE
 40
2455464.43111309
  9
$TDUCREATE
 40
2455464.639446423
  9
$TDUPDATE
 40
2455464.431113102
  9
$TDUUPDATE
 40
2455464.639446435
  9
$TDINDWG
 40
0.0000000116
  9
$TDUSRTIMER
 40
0.0000000116
  9
$USRTIMER
 70
     1
  9
$ANGBASE
 50
0.0
  9
$ANGDIR
 70
     0
  9
$PDMODE
 70
     0
  9
$PDSIZE
 40
-1.0
  9
$PLINEWID
 40
0.0
  9
$SPLFRAME
 70
     0
  9
$SPLINETYPE
 70
     6
  9
$SPLINESEGS
 70
     8
  9
$HANDSEED
  5
18C
  9
$SURFTAB1
 70
     6
  9
$SURFTAB2
 70
     6
  9
$SURFTYPE
 70
     6
  9
$SURFU
 70
     6
  9
$SURFV
 70
     6
  9
$UCSBASE
  2

  9
$UCSNAME
  2

  9
$UCSORG
 10
0.0
 20
0.0
 30
0.0
  9
$UCSXDIR
 10
1.0
 20
0.0
 30
0.0
  9
$UCSYDIR
 10
0.0
 20
1.0
 30
0.0
  9
$UCSORTHOREF
  2

  9
$UCSORTHOVIEW
 70
     0
  9
$UCSORGTOP
 10
0.0
 20
0.0
 30
0.0
  9
$UCSORGBOTTOM
 10
0.0
 20
0.0
 30
0.0
  9
$UCSORGLEFT
 10
0.0
 20
0.0
 30
0.0
  9
$UCSORGRIGHT
 10
0.0
 20
0.0
 30
0.0
  9
$UCSORGFRONT
 10
0.0
 20
0.0
 30
0.0
  9
$UCSORGBACK
 10
0.0
 20
0.0
 30
0.0
  9
$PUCSBASE
  2

  9
$PUCSNAME
  2

  9
$PUCSORG
 10
0.0
 20
0.0
 30
0.0
  9
$PUCSXDIR
 10
1.0
 20
0.0
 30
0.0
  9
$PUCSYDIR
 10
0.0
 20
1.0
 30
0.0
  9
$PUCSORTHOREF
  2

  9
$PUCSORTHOVIEW
 70
     0
  9
$PUCSORGTOP
 10
0.0
 20
0.0
 30
0.0
  9
$PUCSORGBOTTOM
 10
0.0
 20
0.0
 30
0.0
  9
$PUCSORGLEFT
 10
0.0
 20
0.0
 30
0.0
  9
$PUCSORGRIGHT
 10
0.0
 20
0.0
 30
0.0
  9
$PUCSORGFRONT
 10
0.0
 20
0.0
 30
0.0
  9
$PUCSORGBACK
 10
0.0
 20
0.0
 30
0.0
  9
$USERI1
 70
     0
  9
$USERI2
 70
     0
  9
$USERI3
 70
     0
  9
$USERI4
 70
     0
  9
$USERI5
 70
     0
  9
$USERR1
 40
0.0
  9
$USERR2
 40
0.0
  9
$USERR3
 40
0.0
  9
$USERR4
 40
0.0
  9
$USERR5
 40
0.0
  9
$WORLDVIEW
 70
     1
  9
$SHADEDGE
 70
     3
  9
$SHADEDIF
 70
    70
  9
$TILEMODE
 70
     1
  9
$MAXACTVP
 70
    64
  9
$PINSBASE
 10
0.0
 20
0.0
 30
0.0
  9
$PLIMCHECK
 70
     0
  9
$PEXTMIN
 10
1.0000000000E+20
 20
1.0000000000E+20
 30
1.0000000000E+20
  9
$PEXTMAX
 10
-1.0000000000E+20
 20
-1.0000000000E+20
 30
-1.0000000000E+20
  9
$PLIMMIN
 10
0.0
 20
0.0
  9
$PLIMMAX
 10
12.0
 20
9.0
  9
$UNITMODE
 70
     0
  9
$VISRETAIN
 70
     1
  9
$PLINEGEN
 70
     0
  9
$PSLTSCALE
 70
     1
  9
$TREEDEPTH
 70
  3020
  9
$CMLSTYLE
  2
Standard
  9
$CMLJUST
 70
     0
  9
$CMLSCALE
 40
1.0
  9
$PROXYGRAPHICS
 70
     1
  9
$MEASUREMENT
 70
     0
  9
$CELWEIGHT
370
    -1
  9
$ENDCAPS
280
     0
  9
$JOINSTYLE
280
     0
  9
$LWDISPLAY
290
     1
  9
$INSUNITS
 70
     1
  9
$HYPERLINKBASE
  1

  9
$STYLESHEET
  1

  9
$XEDIT
290
     1
  9
$CEPSNTYPE
380
     0
  9
$PSTYLEMODE
290
     1
  9
$FINGERPRINTGUID
  2
{4A00025B-9708-4CD9-B588-20A1DC913B29}
  9
$VERSIONGUID
  2
{FAEB1C32-E019-11D5-929B-00C0DF256EC4}
  9
$EXTNAMES
290
     1
  9
$PSVPSCALE
 40
0.0
  9
$OLESTARTUP
290
     0
  0
ENDSEC
  0
SECTION
  2
CLASSES
  0
CLASS
  1
ACDBDICTIONARYWDFLT
  2
AcDbDictionaryWithDefault
  3
ObjectDBX Classes
 90
        0
280
     0
281
     0
  0
CLASS
  1
VISUALSTYLE
  2
AcDbVisualStyle
  3
ObjectDBX Classes
 90
     4095
280
     0
281
     0
  0
CLASS
  1
MATERIAL
  2
AcDbMaterial
  3
ObjectDBX Classes
 90
     1153
280
     0
281
     0
  0
CLASS
  1
SCALE
  2
AcDbScale
  3
ObjectDBX Classes
 90
     1153
280
     0
281
     0
  0
CLASS
  1
DICTIONARYVAR
  2
AcDbDictionaryVar
  3
ObjectDBX Classes
 90
        0
280
     0
281
     0
  0
CLASS
  1
ACDBPLACEHOLDER
  2
AcDbPlaceHolder
  3
ObjectDBX Classes
 90
        0
280
     0
281
     0
  0
CLASS
  1
LAYOUT
  2
AcDbLayout
  3
ObjectDBX Classes
 90
        0
280
     0
281
     0
  0
ENDSEC
  0
SECTION
  2
TABLES
  0
TABLE
  2
VPORT
  5
8
330
0
100
AcDbSymbolTable
 70
     1
  0
VPORT
  5
29
330
8
100
AcDbSymbolTableRecord
100
AcDbViewportTableRecord
  2
*Active
 70
     0
 10
0.0
 20
0.0
 11
1.0
 21
1.0
 12
47.0
 22
27.0
 13
0.0
 23
0.0
 14
0.5
 24
0.5
 15
0.5
 25
0.5
 16
0.0
 26
0.0
 36
1.0
 17
0.0
 27
0.0
 37
0.0
 40
54.0
 41
1.7407407407
 42
50.0
 43
0.0
 44
0.0
 50
0.0
 51
0.0
 71
     0
 72
  2000
 73
     1
 74
     3
 75
     0
 76
     0
 77
     0
 78
     0
281
     0
 65
     1
110
0.0
120
0.0
130
0.0
111
1.0
121
0.0
131
0.0
112
0.0
122
1.0
132
0.0
 79
     0
146
0.0
  0
ENDTAB
  0
TABLE
  2
LTYPE
  5
5
330
0
100
AcDbSymbolTable
 70
     6
  0
LTYPE
  5
14
330
5
100
AcDbSymbolTableRecord
100
AcDbLinetypeTableRecord
  2
ByBlock
 70
     0
  3

 72
    65
 73
     0
 40
0.0
  0
LTYPE
  5
15
330
5
100
AcDbSymbolTableRecord
100
AcDbLinetypeTableRecord
  2
ByLayer
 70
     0
  3

 72
    65
 73
     0
 40
0.0
  0
LTYPE
  5
16
330
5
100
AcDbSymbolTableRecord
100
AcDbLinetypeTableRecord
  2
Continuous
 70
     0
  3
Solid line
 72
    65
 73
     0
 40
0.0
  0
LTYPE
  5
3F
330
5
100
AcDbSymbolTableRecord
100
AcDbLinetypeTableRecord
  2
HIDDEN
 70
     0
  3
Hidden __ __ __ __ __ __ __ __ __ __ __ __ __ __
 72
    65
 73
     2
 40
0.075
 49
0.05
 74
     0
 49
-0.025
 74
     0
  0
LTYPE
  5
40
330
5
100
AcDbSymbolTableRecord
100
AcDbLinetypeTableRecord
  2
PHANTOM
 70
     0
  3
Phantom ______  __  __  ______  __  __  ______
 72
    65
 73
     6
 40
0.5
 49
0.25
 74
     0
 49
-0.05
 74
     0
 49
0.05
 74
     0
 49
-0.05
 74
     0
 49
0.05
 74
     0
 49
-0.05
 74
     0
  0
LTYPE
  5
41
330
5
100
AcDbSymbolTableRecord
100
AcDbLinetypeTableRecord
  2
CENTER
 70
     0
  3
Center ____ _ ____ _ ____ _ ____ _ ____ _ ____
 72
    65
 73
     4
 40
0.4
 49
0.25
 74
     0
 49
-0.05
 74
     0
 49
0.05
 74
     0
 49
-0.05
 74
     0
  0
LTYPE
  5
42
330
5
100
AcDbSymbolTableRecord
100
AcDbLinetypeTableRecord
  2
CENTERX2
 70
     0
  3
Center (2x) ________  __  ________  __  _____
 72
    65
 73
     4
 40
0.8
 49
0.5
 74
     0
 49
-0.1
 74
     0
 49
0.1
 74
     0
 49
-0.1
 74
     0
  0
LTYPE
  5
43
330
5
100
AcDbSymbolTableRecord
100
AcDbLinetypeTableRecord
  2
DOT2
 70
     0
  3
Dot (.5x) ........................................
 72
    65
 73
     2
 40
0.025
 49
0.0
 74
     0
 49
-0.025
 74
     0
  0
ENDTAB
  0
TABLE
  2
LAYER
  5
2
330
0
100
AcDbSymbolTable
 70
     2
  0
LAYER
  5
10
330
2
100
AcDbSymbolTableRecord
100
AcDbLayerTableRecord
  2
0
 70
     0
 62
     7
  6
Continuous
370
    -3
390
F
  0
LAYER
  5
44
330
2
100
AcDbSymbolTableRecord
100
AcDbLayerTableRecord
  2
FORMAT
 70
     0
 62
     7
  6
Continuous
370
    -3
390
F
  0
ENDTAB
  0
TABLE
  2
STYLE
  5
3
330
0
100
AcDbSymbolTable
 70
     3
  0
STYLE
  5
11
330
3
100
AcDbSymbolTableRecord
100
AcDbTextStyleTableRecord
  2
Standard
 70
     0
 40
0.0
 41
1.0
 50
0.0
 71
     0
 42
0.2
  3
txt
  4

  0
STYLE
  5
162
330
3
100
AcDbSymbolTableRecord
100
AcDbTextStyleTableRecord
  2
SLDTEXTSTYLE0
 70
     0
 40
0.0
 41
0.96
 50
0.0
 71
     0
 42
0.2
  3
TXT
  4

  0
STYLE
  5
187
330
3
100
AcDbSymbolTableRecord
100
AcDbTextStyleTableRecord
  2
SLDTEXTSTYLE1
 70
     0
 40
0.0
 41
0.8942857143
 50
0.0
 71
     0
 42
0.2
  3
TXT
  4

  0
ENDTAB
  0
TABLE
  2
VIEW
  5
6
330
0
100
AcDbSymbolTable
 70
     0
  0
ENDTAB
  0
TABLE
  2
UCS
  5
7
330
0
100
AcDbSymbolTable
 70
     0
  0
ENDTAB
  0
TABLE
  2
APPID
  5
9
330
0
100
AcDbSymbolTable
 70
     1
  0
APPID
  5
12
330
9
100
AcDbSymbolTableRecord
100
AcDbRegAppTableRecord
  2
ACAD
 70
     0
  0
ENDTAB
  0
TABLE
  2
DIMSTYLE
  5
A
330
0
100
AcDbSymbolTable
 70
     1
100
AcDbDimStyleTable
  0
DIMSTYLE
105
27
330
A
100
AcDbSymbolTableRecord
100
AcDbDimStyleTableRecord
  2
Standard
 70
     0
340
11
  0
ENDTAB
  0
TABLE
  2
BLOCK_RECORD
  5
1
330
0
100
AcDbSymbolTable
 70
     2
  0
BLOCK_RECORD
  5
1F
330
1
100
AcDbSymbolTableRecord
100
AcDbBlockTableRecord
  2
*Model_Space
340
22
  0
BLOCK_RECORD
  5
1B
330
1
100
AcDbSymbolTableRecord
100
AcDbBlockTableRecord
  2
*Paper_Space
340
1E
  0
BLOCK_RECORD
  5
23
330
1
100
AcDbSymbolTableRecord
100
AcDbBlockTableRecord
  2
*Paper_Space0
340
26
  0
BLOCK_RECORD
  5
15F
330
1
100
AcDbSymbolTableRecord
100
AcDbBlockTableRecord
  2
SW_NOTE_0
340
0
102
{BLKREFS
331
189
102
}
  0
ENDTAB
  0
ENDSEC
  0
SECTION
  2
BLOCKS
  0
BLOCK
  5
20
330
1F
100
AcDbEntity
  8
0
100
AcDbBlockBegin
  2
*Model_Space
 70
     0
 10
0.0
 20
0.0
 30
0.0
  3
*Model_Space
  1

  0
ENDBLK
  5
21
330
1F
100
AcDbEntity
  8
0
100
AcDbBlockEnd
  0
BLOCK
  5
1C
330
1B
100
AcDbEntity
 67
     1
  8
0
100
AcDbBlockBegin
  2
*Paper_Space
 70
     0
 10
0.0
 20
0.0
 30
0.0
  3
*Paper_Space
  1

  0
ENDBLK
  5
1D
330
1B
100
AcDbEntity
 67
     1
  8
0
100
AcDbBlockEnd
  0
BLOCK
  5
24
330
23
100
AcDbEntity
  8
0
100
AcDbBlockBegin
  2
*Paper_Space0
 70
     0
 10
0.0
 20
0.0
 30
0.0
  3
*Paper_Space0
  1

  0
ENDBLK
  5
25
330
23
100
AcDbEntity
  8
0
100
AcDbBlockEnd
  0
BLOCK
  5
160
330
15F
100
AcDbEntity
  8
0
100
AcDbBlockBegin
  2
SW_NOTE_0
 70
     0
 10
0.0
 20
0.0
 30
0.0
  3
SW_NOTE_0
  1

  0
MTEXT
  5
185
330
15F
100
AcDbEntity
  8
FORMAT
 62
     0
100
AcDbMText
 10
0.0
 20
1.6113346747
 30
0.0
 40
1.25
 41
0.0
 71
     1
 72
     1
  1
Titus
  7
SLDTEXTSTYLE0
 73
     1
 44
1.0
  0
MTEXT
  5
186
330
15F
100
AcDbEntity
  8
FORMAT
 62
     0
100
AcDbMText
 10
0.0
 20
-1.721998765
 30
0.0
 40
1.25
 41
0.0
 71
     1
 72
     1
  1
MDV
  7
SLDTEXTSTYLE0
 73
     1
 44
1.0
  0
MTEXT
  5
188
330
15F
100
AcDbEntity
  8
FORMAT
 62
     0
100
AcDbMText
 10
0.0
 20
-5.0553322047
 30
0.0
 40
1.25
 41
0.0
 71
     1
 72
     1
  1
Size 16
  7
SLDTEXTSTYLE1
 73
     1
 44
1.0
  0
ENDBLK
  5
161
330
15F
100
AcDbEntity
  8
0
100
AcDbBlockEnd
  0
ENDSEC
  0
SECTION
  2
ENTITIES
  0
ARC
  5
45
330
1F
100
AcDbEntity
  8
0
  6
Continuous
 62
     7
370
    30
100
AcDbCircle
 10
5.3970652232
 20
44.6026981304
 30
0.0
 40
0.1250000000000018
100
AcDbArc
 50
75.1671520792
 51
180.0
  0
LINE
  5
46
330
1F
100
AcDbEntity
  8
0
  6
Continuous
 62
     7
370
    30
100
AcDbLine
 10
5.2720652232
 20
44.6026981304
 30
0.0
 11
2.1160652232
 21
44.6026981304
 31
0.0
  0
ARC
  5
47
330
1F
100
AcDbEntity
  8
0
  6
Continuous
 62
     7
370
    30
100
AcDbCircle
 10
5.3970652232
 20
9.8536981304
 30
0.0
 40
0.1250000000000018
100
AcDbArc
 50
180.0
 51
284.8328479208
  0
LINE
  5
48
330
1F
100
AcDbEntity
  8
0
  6
Continuous
 62
     7
370
    30
100
AcDbLine
 10
2.1160652232
 20
9.8536981304
 30
0.0
 11
5.2720652232
 21
9.8536981304
 31
0.0
  0
LINE
  5
49
330
1F
100
AcDbEntity
  8
0
  6
Continuous
 62
     7
370
    30
100
AcDbLine
 10
81.2190652232
 20
34.7981981304
 30
0.0
 11
81.2190652232
 21
34.8411981304
 31
0.0
  0
LINE
  5
4A
330
1F
100
AcDbEntity
  8
0
  6
Continuous
 62
     7
370
    30
100
AcDbLine
 10
77.2460652232
 20
34.8411981304
 30
0.0
 11
77.2460652232
 21
34.8391981304
 31
0.0
  0
LINE
  5
4B
330
1F
100
AcDbEntity
  8
0
  6
Continuous
 62
     7
370
    30
100
AcDbLine
 10
77.2460652232
 20
34.8411981304
 30
0.0
 11
81.2190652232
 21
34.8411981304
 31
0.0
  0
CIRCLE
  5
4C
330
1F
100
AcDbEntity
  8
0
  6
Continuous
 62
     7
370
    30
100
AcDbCircle
 10
80.0370652232
 20
34.4951981304
 30
0.0
 40
0.0805000000000007
  0
CIRCLE
  5
4D
330
1F
100
AcDbEntity
  8
0
  6
Continuous
 62
     7
370
    30
100
AcDbCircle
 10
77.6620652232
 20
34.4951981304
 30
0.0
 40
0.0805000000000078
  0
LINE
  5
4E
330
1F
100
AcDbEntity
  8
0
  6
Continuous
 62
     7
370
    30
100
AcDbLine
 10
81.2190652232
 20
34.9091981304
 30
0.0
 11
81.2190652232
 21
34.8701981304
 31
0.0
  0
ARC
  5
4F
330
1F
100
AcDbEntity
  8
0
  6
Continuous
 62
     7
370
    30
100
AcDbCircle
 10
81.2190652232
 20
34.9381981304
 30
0.0
 40
0.0290000000000035
100
AcDbArc
 50
270.0
 51
90.0
  0
LINE
  5
50
330
1F
100
AcDbEntity
  8
0
  6
Continuous
 62
     7
370
    30
100
AcDbLine
 10
81.2190652232
 20
34.9671981304
 30
0.0
 11
81.2190652232
 21
35.0061981304
 31
0.0
  0
ARC
  5
51
330
1F
100
AcDbEntity
  8
0
  6
Continuous
 62
     7
370
    30
100
AcDbCircle
 10
81.2190652232
 20
34.9381981304
 30
0.0
 40
0.0680000000000049
100
AcDbArc
 50
270.0
 51
90.0
  0
LINE
  5
52
330
1F
100
AcDbEntity
  8
0
  6
Continuous
 62
     7
370
    30
100
AcDbLine
 10
81.2190652232
 20
34.8701981304
 30
0.0
 11
81.2190652232
 21
34.8411981304
 31
0.0
  0
LINE
  5
53
330
1F
100
AcDbEntity
  8
0
  6
Continuous
 62
     7
370
    30
100
AcDbLine
 10
77.2460652232
 20
34.8411981304
 30
0.0
 11
77.2460652232
 21
34.8701981304
 31
0.0
  0
LINE
  5
54
330
1F
100
AcDbEntity
  8
0
  6
Continuous
 62
     7
370
    30
100
AcDbLine
 10
77.2460652232
 20
34.9091981304
 30
0.0
 11
81.2190652232
 21
34.9091981304
 31
0.0
  0
LINE
  5
55
330
1F
100
AcDbEntity
  8
0
  6
Continuous
 62
     7
370
    30
100
AcDbLine
 10
80.7870652232
 20
34.9671981304
 30
0.0
 11
80.7870652232
 21
35.0061981304
 31
0.0
  0
LINE
  5
56
330
1F
100
AcDbEntity
  8
0
  6
Continuous
 62
     7
370
    30
100
AcDbLine
 10
81.2160652232
 20
35.0061981304
 30
0.0
 11
81.2160652232
 21
34.9671981304
 31
0.0
  0
LINE
  5
57
330
1F
100
AcDbEntity
  8
0
  6
Continuous
 62
     7
370
    30
100
AcDbLine
 10
81.2160652232
 20
34.9671981304
 30
0.0
 11
80.7870652232
 21
34.9671981304
 31
0.0
  0
LINE
  5
58
330
1F
100
AcDbEntity
  8
0
  6
Continuous
 62
     7
370
    30
100
AcDbLine
 10
80.7870652232
 20
35.0061981304
 30
0.0
 11
81.2160652232
 21
35.0061981304
 31
0.0
  0
LINE
  5
59
330
1F
100
AcDbEntity
  8
0
  6
Continuous
 62
     7
370
    30
100
AcDbLine
 10
81.2190652232
 20
34.9671981304
 30
0.0
 11
81.2160652232
 21
34.9671981304
 31
0.0
  0
LINE
  5
5A
330
1F
100
AcDbEntity
  8
0
  6
Continuous
 62
     7
370
    30
100
AcDbLine
 10
81.2190652232
 20
35.0061981304
 30
0.0
 11
81.2160652232
 21
35.0061981304
 31
0.0
  0
ARC
  5
5B
330
1F
100
AcDbEntity
  8
0
  6
Continuous
 62
     7
370
    30
100
AcDbCircle
 10
77.2460652232
 20
34.9381981304
 30
0.0
 40
0.028999999999997
100
AcDbArc
 50
195.0901851799
 51
270.0
  0
LINE
  5
5C
330
1F
100
AcDbEntity
  8
0
  6
Continuous
 62
     7
370
    30
100
AcDbLine
 10
77.2460652232
 20
34.9091981304
 30
0.0
 11
77.2460652232
 21
34.8701981304
 31
0.0
  0
ARC
  5
5D
330
1F
100
AcDbEntity
  8
0
  6
Continuous
 62
     7
370
    30
100
AcDbCircle
 10
77.2460652232
 20
34.9381981304
 30
0.0
 40
0.0679999999999995
100
AcDbArc
 50
245.6842608289
 51
270.0
  0
LINE
  5
5E
330
1F
100
AcDbEntity
  8
0
  6
Continuous
 62
     7
370
    30
100
AcDbLine
 10
77.2460652232
 20
19.8391981304
 30
0.0
 11
77.2460652232
 21
19.8371981304
 31
0.0
  0
LINE
  5
5F
330
1F
100
AcDbEntity
  8
0
  6
Continuous
 62
     7
370
    30
100
AcDbLine
 10
81.2190652232
 20
19.8371981304
 30
0.0
 11
81.2190652232
 21
19.8801981304
 31
0.0
  0
LINE
  5
60
330
1F
100
AcDbEntity
  8
0
  6
Continuous
 62
     7
370
    30
100
AcDbLine
 10
81.2190652232
 20
19.8371981304
 30
0.0
 11
77.2460652232
 21
19.8371981304
 31
0.0
  0
CIRCLE
  5
61
330
1F
100
AcDbEntity
  8
0
  6
Continuous
 62
     7
370
    30
100
AcDbCircle
 10
80.0370652232
 20
20.1831981304
 30
0.0
 40
0.0805000000000007
  0
CIRCLE
  5
62
330
1F
100
AcDbEntity
  8
0
  6
Continuous
 62
     7
370
    30
100
AcDbCircle
 10
77.6620652232
 20
20.1831981304
 30
0.0
 40
0.0805000000000007
  0
LINE
  5
63
330
1F
100
AcDbEntity
  8
0
  6
Continuous
 62
     7
370
    30
100
AcDbLine
 10
77.2460652232
 20
19.8081981304
 30
0.0
 11
77.2460652232
 21
19.8371981304
 31
0.0
  0
LINE
  5
64
330
1F
100
AcDbEntity
  8
0
  6
Continuous
 62
     7
370
    30
100
AcDbLine
 10
81.2190652232
 20
19.8371981304
 30
0.0
 11
81.2190652232
 21
19.8081981304
 31
0.0
  0
LINE
  5
65
330
1F
100
AcDbEntity
  8
0
  6
Continuous
 62
     7
370
    30
100
AcDbLine
 10
81.2190652232
 20
19.7691981304
 30
0.0
 11
77.2460652232
 21
19.7691981304
 31
0.0
  0
LINE
  5
66
330
1F
100
AcDbEntity
  8
0
  6
Continuous
 62
     7
370
    30
100
AcDbLine
 10
81.2160652232
 20
19.7111981304
 30
0.0
 11
81.2160652232
 21
19.6721981304
 31
0.0
  0
LINE
  5
67
330
1F
100
AcDbEntity
  8
0
  6
Continuous
 62
     7
370
    30
100
AcDbLine
 10
81.2160652232
 20
19.6721981304
 30
0.0
 11
80.7870652232
 21
19.6721981304
 31
0.0
  0
LINE
  5
68
330
1F
100
AcDbEntity
  8
0
  6
Continuous
 62
     7
370
    30
100
AcDbLine
 10
80.7870652232
 20
19.6721981304
 30
0.0
 11
80.7870652232
 21
19.7111981304
 31
0.0
  0
LINE
  5
69
330
1F
100
AcDbEntity
  8
0
  6
Continuous
 62
     7
370
    30
100
AcDbLine
 10
80.7870652232
 20
19.7111981304
 30
0.0
 11
81.2160652232
 21
19.7111981304
 31
0.0
  0
LINE
  5
6A
330
1F
100
AcDbEntity
  8
0
  6
Continuous
 62
     7
370
    30
100
AcDbLine
 10
81.2190652232
 20
19.7111981304
 30
0.0
 11
81.2190652232
 21
19.6721981304
 31
0.0
  0
LINE
  5
6B
330
1F
100
AcDbEntity
  8
0
  6
Continuous
 62
     7
370
    30
100
AcDbLine
 10
81.2160652232
 20
19.6721981304
 30
0.0
 11
81.2190652232
 21
19.6721981304
 31
0.0
  0
LINE
  5
6C
330
1F
100
AcDbEntity
  8
0
  6
Continuous
 62
     7
370
    30
100
AcDbLine
 10
81.2160652232
 20
19.7111981304
 30
0.0
 11
81.2190652232
 21
19.7111981304
 31
0.0
  0
ARC
  5
6D
330
1F
100
AcDbEntity
  8
0
  6
Continuous
 62
     7
370
    30
100
AcDbCircle
 10
81.2190652232
 20
19.7401981304
 30
0.0
 40
0.0290000000000035
100
AcDbArc
 50
270.0
 51
90.0
  0
ARC
  5
6E
330
1F
100
AcDbEntity
  8
0
  6
Continuous
 62
     7
370
    30
100
AcDbCircle
 10
81.2190652232
 20
19.7401981304
 30
0.0
 40
0.0680000000000014
100
AcDbArc
 50
270.0
 51
90.0
  0
LINE
  5
6F
330
1F
100
AcDbEntity
  8
0
  6
Continuous
 62
     7
370
    30
100
AcDbLine
 10
81.2190652232
 20
19.7691981304
 30
0.0
 11
81.2190652232
 21
19.8081981304
 31
0.0
  0
LINE
  5
70
330
1F
100
AcDbEntity
  8
0
  6
Continuous
 62
     7
370
    30
100
AcDbLine
 10
77.2460652232
 20
19.7691981304
 30
0.0
 11
77.2460652232
 21
19.8081981304
 31
0.0
  0
ARC
  5
71
330
1F
100
AcDbEntity
  8
0
  6
Continuous
 62
     7
370
    30
100
AcDbCircle
 10
77.2460652232
 20
19.7401981304
 30
0.0
 40
0.0290000000000035
100
AcDbArc
 50
90.0
 51
164.9098148201
  0
ARC
  5
72
330
1F
100
AcDbEntity
  8
0
  6
Continuous
 62
     7
370
    30
100
AcDbCircle
 10
77.2460652232
 20
19.7401981304
 30
0.0
 40
0.0680000000000014
100
AcDbArc
 50
90.0
 51
114.3157391711
  0
LINE
  5
73
330
1F
100
AcDbEntity
  8
0
  6
Continuous
 62
     7
370
    30
100
AcDbLine
 10
5.4970652232
 20
8.2950369801
 30
0.0
 11
5.4970652232
 21
46.1613592808
 31
0.0
  0
LINE
  5
74
330
1F
100
AcDbEntity
  8
0
  6
Continuous
 62
     7
370
    30
100
AcDbLine
 10
5.4970652232
 20
46.1613592808
 30
0.0
 11
5.4990652232
 21
46.1613592808
 31
0.0
  0
LINE
  5
75
330
1F
100
AcDbEntity
  8
0
  6
Continuous
 62
     7
370
    30
100
AcDbLine
 10
6.2180652232
 20
45.4423592808
 30
0.0
 11
5.4990652232
 21
46.1613592808
 31
0.0
  0
LINE
  5
76
330
1F
100
AcDbEntity
  8
0
  6
Continuous
 62
     7
370
    30
100
AcDbLine
 10
6.2180652232
 20
9.0140369801
 30
0.0
 11
6.2180652232
 21
45.4423592808
 31
0.0
  0
LINE
  5
77
330
1F
100
AcDbEntity
  8
0
  6
Continuous
 62
     7
370
    30
100
AcDbLine
 10
5.4990652232
 20
8.2950369801
 30
0.0
 11
6.2180652232
 21
9.0140369801
 31
0.0
  0
LINE
  5
78
330
1F
100
AcDbEntity
  8
0
  6
Continuous
 62
     7
370
    30
100
AcDbLine
 10
5.4970652232
 20
8.2950369801
 30
0.0
 11
5.4990652232
 21
8.2950369801
 31
0.0
  0
CIRCLE
  5
79
330
1F
100
AcDbEntity
  8
0
  6
Continuous
 62
     7
370
    30
100
AcDbCircle
 10
5.8430652232
 20
32.9781981304
 30
0.0
 40
0.0468749999999956
  0
CIRCLE
  5
7A
330
1F
100
AcDbEntity
  8
0
  6
Continuous
 62
     7
370
    30
100
AcDbCircle
 10
5.8430652232
 20
21.4781981304
 30
0.0
 40
0.0468749999999956
  0
CIRCLE
  5
7B
330
1F
100
AcDbEntity
  8
0
  6
Continuous
 62
     7
370
    30
100
AcDbCircle
 10
5.8430652232
 20
9.9781981304
 30
0.0
 40
0.0468749999999956
  0
CIRCLE
  5
7C
330
1F
100
AcDbEntity
  8
0
  6
Continuous
 62
     7
370
    30
100
AcDbCircle
 10
5.8430652232
 20
44.4781981304
 30
0.0
 40
0.0468749999999956
  0
SPLINE
  5
7D
330
1F
100
AcDbEntity
  8
0
  6
Continuous
 62
     7
370
    30
100
AcDbSpline
210
0.0
220
0.0
230
1.0
 70
     8
 71
     3
 72
    11
 73
     7
 74
     0
 42
0.00000001
 43
0.00000001
 40
0.0
 40
0.0
 40
0.0
 40
0.0
 40
0.2500000000000041
 40
0.4999999999999829
 40
0.7499999999999959
 40
0.9999999999999999
 40
0.9999999999999999
 40
0.9999999999999999
 40
0.9999999999999999
 10
5.497065223215292
 20
8.29503698009634
 30
0.0
 10
5.488154704236462
 20
8.295133742625252
 30
0.0
 10
5.47033366627882
 20
8.295327267683085
 30
0.0
 10
5.447856610556244
 20
8.295617555269844
 30
0.0
 10
5.432131664063895
 20
8.295907842856582
 30
0.0
 10
5.430087370164834
 20
8.296101367914416
 30
0.0
 10
5.42906522321529
 20
8.296198130443333
 30
0.0
  0
SPLINE
  5
7E
330
1F
100
AcDbEntity
  8
0
  6
Continuous
 62
     7
370
    30
100
AcDbSpline
210
0.0
220
0.0
230
1.0
 70
     8
 71
     3
 72
    11
 73
     7
 74
     0
 42
0.00000001
 43
0.00000001
 40
0.0
 40
0.0
 40
0.0
 40
0.0
 40
0.2499999999999985
 40
0.5000000000000132
 40
0.7499999999999934
 40
1.0
 40
1.0
 40
1.0
 40
1.0
 10
5.429065223215295
 20
46.16019813044333
 30
0.0
 10
5.430087370164834
 20
46.16029489297225
 30
0.0
 10
5.4321316640639
 20
46.16048841803008
 30
0.0
 10
5.44785661055624
 20
46.16077870561682
 30
0.0
 10
5.470333666278811
 20
46.16106899320357
 30
0.0
 10
5.488154704236462
 20
46.1612625182614
 30
0.0
 10
5.497065223215292
 20
46.16135928079031
 30
0.0
  0
LINE
  5
7F
330
1F
100
AcDbEntity
  8
0
  6
Continuous
 62
     7
370
    30
100
AcDbLine
 10
5.4290652232
 20
8.2961981304
 30
0.0
 11
5.4290652232
 21
46.1601981304
 31
0.0
  0
LINE
  5
80
330
1F
100
AcDbEntity
  8
0
  6
Continuous
 62
     7
370
    30
100
AcDbLine
 10
5.4970652232
 20
46.2281981304
 30
0.0
 11
5.4970652232
 21
46.1891981304
 31
0.0
  0
LINE
  5
81
330
1F
100
AcDbEntity
  8
0
  6
Continuous
 62
     7
370
    30
100
AcDbLine
 10
5.4970652232
 20
46.2281981304
 30
0.0
 11
6.2180652232
 21
46.2281981304
 31
0.0
  0
LINE
  5
82
330
1F
100
AcDbEntity
  8
0
  6
Continuous
 62
     7
370
    30
100
AcDbLine
 10
6.2180652232
 20
46.2281981304
 30
0.0
 11
6.2180652232
 21
46.2150769046
 31
0.0
  0
LINE
  5
83
330
1F
100
AcDbEntity
  8
0
  6
Continuous
 62
     7
370
    30
100
AcDbLine
 10
5.4970652232
 20
46.1891981304
 30
0.0
 11
5.5372143571
 21
46.1891981304
 31
0.0
  0
SPLINE
  5
84
330
1F
100
AcDbEntity
  8
0
  6
Continuous
 62
     7
370
    30
100
AcDbSpline
210
0.0
220
0.0
230
1.0
 70
     8
 71
     3
 72
    11
 73
     7
 74
     0
 42
0.00000001
 43
0.00000001
 40
0.0
 40
0.0
 40
0.0
 40
0.0
 40
0.2912459887824391
 40
0.5824919775648887
 40
0.873737966347292
 40
1.0
 40
1.0
 40
1.0
 40
1.0
 10
5.42906522321529
 20
8.296198130443328
 30
0.0
 10
5.430080504861866
 20
8.287267184986295
 30
0.0
 10
5.432111068155002
 20
8.26940529407222
 30
0.0
 10
5.447938994191827
 20
8.247234635522828
 30
0.0
 10
5.465854379328721
 20
8.233534500905039
 30
0.0
 10
5.478499878843641
 20
8.231688565122012
 30
0.0
 10
5.482324108318312
 20
8.231130320505303
 30
0.0
  0
SPLINE
  5
85
330
1F
100
AcDbEntity
  8
0
  6
Continuous
 62
     7
370
    30
100
AcDbSpline
210
0.0
220
0.0
230
1.0
 70
     8
 71
     3
 72
    10
 73
     6
 74
     0
 42
0.00000001
 43
0.00000001
 40
0.0
 40
0.0
 40
0.0
 40
0.0
 40
0.3850936308344161
 40
0.7701872616689898
 40
1.0
 40
1.0
 40
1.0
 40
1.0
 10
5.468065223215293
 20
8.296198130443328
 30
0.0
 10
5.468520657431643
 20
8.292434485907517
 30
0.0
 10
5.469431525864349
 20
8.28490719683589
 30
0.0
 10
5.474982944691933
 20
8.27613681964013
 30
0.0
 10
5.480217406550697
 20
8.273082133080466
 30
0.0
 10
5.482173714167224
 20
8.271940486289635
 30
0.0
  0
SPLINE
  5
86
330
1F
100
AcDbEntity
  8
0
  6
Continuous
 62
     7
370
    30
100
AcDbSpline
210
0.0
220
0.0
230
1.0
 70
     8
 71
     3
 72
    11
 73
     7
 74
     0
 42
0.00000001
 43
0.00000001
 40
0.0
 40
0.0
 40
0.0
 40
0.0
 40
0.2499999999999681
 40
0.4999999999999797
 40
0.7499999999999916
 40
1.0
 40
1.0
 40
1.0
 40
1.0
 10
5.497065223215292
 20
46.22819813044332
 30
0.0
 10
5.488154704236475
 20
46.22717598349379
 30
0.0
 10
5.470333666278833
 20
46.22513168959471
 30
0.0
 10
5.447856610556219
 20
46.2094067431024
 30
0.0
 10
5.432131664063917
 20
46.18692968737979
 30
0.0
 10
5.430087370164834
 20
46.16910864942216
 30
0.0
 10
5.429065223215295
 20
46.16019813044333
 30
0.0
  0
SPLINE
  5
87
330
1F
100
AcDbEntity
  8
0
  6
Continuous
 62
     7
370
    30
100
AcDbSpline
210
0.0
220
0.0
230
1.0
 70
     8
 71
     3
 72
    11
 73
     7
 74
     0
 42
0.00000001
 43
0.00000001
 40
0.0
 40
0.0
 40
0.0
 40
0.0
 40
0.2499999999999988
 40
0.4999999999999331
 40
0.7500000000000019
 40
1.0
 40
1.0
 40
1.0
 40
1.0
 10
5.497065223215292
 20
46.18919813044333
 30
0.0
 10
5.493265148944906
 20
46.18876221483249
 30
0.0
 10
5.485665000404147
 20
46.18789038361082
 30
0.0
 10
5.47607919722835
 20
46.18118415643028
 30
0.0
 10
5.469372970047806
 20
46.17159835325447
 30
0.0
 10
5.468501138826127
 20
46.1639982047137
 30
0.0
 10
5.468065223215293
 20
46.16019813044333
 30
0.0
  0
LINE
  5
88
330
1F
100
AcDbEntity
  8
0
  6
Continuous
 62
     7
370
    30
100
AcDbLine
 10
4.8110652232
 20
36.0834643406
 30
0.0
 11
4.8110652232
 21
36.4948428243
 31
0.0
  0
LINE
  5
89
330
1F
100
AcDbEntity
  8
0
  6
Continuous
 62
     7
370
    30
100
AcDbLine
 10
4.8110652232
 20
37.2448153398
 30
0.0
 11
4.8110652232
 21
36.8334907761
 31
0.0
  0
LWPOLYLINE
  5
8A
330
1F
100
AcDbEntity
  8
0
  6
Continuous
 62
     7
370
    30
100
AcDbPolyline
 90
        3
 70
   128
 43
0.0
 10
4.6505002213
 20
23.4026148974
 10
4.6805768935
 20
23.4241042256
 10
4.7210652232
 20
23.439511489
  0
LINE
  5
8B
330
1F
100
AcDbEntity
  8
0
  6
Continuous
 62
     7
370
    30
100
AcDbLine
 10
4.7010652232
 20
36.0779503618
 30
0.0
 11
4.7010652232
 21
36.5034412097
 31
0.0
  0
LINE
  5
8C
330
1F
100
AcDbEntity
  8
0
  6
Continuous
 62
     7
370
    30
100
AcDbLine
 10
4.7010652232
 20
37.2534774258
 30
0.0
 11
4.7010652232
 21
36.8279520606
 31
0.0
  0
LWPOLYLINE
  5
8D
330
1F
100
AcDbEntity
  8
0
  6
Continuous
 62
     7
370
    30
100
AcDbPolyline
 90
        3
 70
   128
 43
0.0
 10
4.7210652232
 20
42.313511489
 10
4.6805768935
 20
42.2981042256
 10
4.65017271
 20
42.2763008204
  0
LWPOLYLINE
  5
8E
330
1F
100
AcDbEntity
  8
0
  6
Continuous
 62
     7
370
    30
100
AcDbPolyline
 90
        8
 70
   128
 43
0.0
 10
4.7410652232
 20
31.0323855115
 10
4.7171475087
 20
31.0357495927
 10
4.6968710494
 20
31.0453296853
 10
4.6833227524
 20
31.0596673072
 10
4.6785652232
 20
31.0765796853
 10
4.6833227524
 20
31.0934920635
 10
4.6968710494
 20
31.1078296853
 10
4.7136469224
 20
31.116294209
  0
LWPOLYLINE
  5
8F
330
1F
100
AcDbEntity
  8
0
  6
Continuous
 62
     7
370
    30
100
AcDbPolyline
 90
        8
 70
   128
 43
0.0
 10
4.7698021239
 20
31.1158253255
 10
4.785259397
 20
31.1078296853
 10
4.798807694
 20
31.0934920635
 10
4.8035652232
 20
31.0765796853
 10
4.798807694
 20
31.0596673072
 10
4.785259397
 20
31.0453296853
 10
4.7649829377
 20
31.0357495927
 10
4.7410652232
 20
31.0323855115
  0
LINE
  5
90
330
1F
100
AcDbEntity
  8
0
  6
Continuous
 62
     7
370
    30
100
AcDbLine
 10
4.7210652232
 20
42.3097533718
 30
0.0
 11
4.7080176222
 21
42.3097533718
 31
0.0
  0
LINE
  5
91
330
1F
100
AcDbEntity
  8
0
  6
Continuous
 62
     7
370
    30
100
AcDbLine
 10
4.7610652232
 20
42.3097533718
 30
0.0
 11
4.7910652232
 21
42.3097533718
 31
0.0
  0
ARC
  5
92
330
1F
100
AcDbEntity
  8
0
  6
Continuous
 62
     7
370
    30
100
AcDbCircle
 10
4.741104979
 20
42.1900572019
 30
0.0
 40
0.0679567291080665
100
AcDbArc
 50
32.2505315878
 51
148.1691011309
  0
LINE
  5
93
330
1F
100
AcDbEntity
  8
0
  6
Continuous
 62
     7
370
    30
100
AcDbLine
 10
4.7210652232
 20
42.3097533718
 30
0.0
 11
4.7210652232
 21
42.3181562139
 31
0.0
  0
LINE
  5
94
330
1F
100
AcDbEntity
  8
0
  6
Continuous
 62
     7
370
    30
100
AcDbLine
 10
4.7610652232
 20
42.3097533718
 30
0.0
 11
4.7610652232
 21
42.3173340738
 31
0.0
  0
LINE
  5
95
330
1F
100
AcDbEntity
  8
0
  6
Continuous
 62
     7
370
    30
100
AcDbLine
 10
4.7910652232
 20
36.5030602619
 30
0.0
 11
4.7910652232
 21
36.0798369401
 31
0.0
  0
LINE
  5
96
330
1F
100
AcDbEntity
  8
0
  6
Continuous
 62
     7
370
    30
100
AcDbLine
 10
4.7910652232
 20
37.252999831
 30
0.0
 11
4.7910652232
 21
36.8298558467
 31
0.0
  0
LWPOLYLINE
  5
97
330
1F
100
AcDbEntity
  8
0
  6
Continuous
 62
     7
370
    30
100
AcDbPolyline
 90
       16
 70
   128
 43
0.0
 10
4.7124173056
 20
12.2418578397
 10
4.6968710494
 20
12.2338296853
 10
4.6833227524
 20
12.2194920635
 10
4.6785652232
 20
12.2025796853
 10
4.6833227524
 20
12.1856673072
 10
4.6968710494
 20
12.1713296853
 10
4.7171475087
 20
12.1617495927
 10
4.7410652232
 20
12.1583855115
 10
4.7649829377
 20
12.1617495927
 10
4.785259397
 20
12.1713296853
 10
4.798807694
 20
12.1856673072
 10
4.8035652232
 20
12.2025796853
 10
4.798807694
 20
12.2194920635
 10
4.785259397
 20
12.2338296853
 10
4.7649829377
 20
12.243409778
 10
4.7631521334
 20
12.2439222687
  0
LINE
  5
98
330
1F
100
AcDbEntity
  8
0
  6
Continuous
 62
     7
370
    30
100
AcDbLine
 10
4.7610652232
 20
23.4357533718
 30
0.0
 11
4.7910652232
 21
23.4357533718
 31
0.0
  0
LINE
  5
99
330
1F
100
AcDbEntity
  8
0
  6
Continuous
 62
     7
370
    30
100
AcDbLine
 10
4.7210652232
 20
23.4357533718
 30
0.0
 11
4.7080176222
 21
23.4357533718
 31
0.0
  0
ARC
  5
9A
330
1F
100
AcDbEntity
  8
0
  6
Continuous
 62
     7
370
    30
100
AcDbCircle
 10
4.7351209041
 20
23.3233126021
 30
0.0
 40
0.0591352740396824
100
AcDbArc
 50
84.2308445873
 51
150.9608638447
  0
ARC
  5
9B
330
1F
100
AcDbEntity
  8
0
  6
Continuous
 62
     7
370
    30
100
AcDbCircle
 10
4.7470047819
 20
23.3232962348
 30
0.0
 40
0.0591510802550979
100
AcDbArc
 50
29.0874145077
 51
95.7629740182
  0
LINE
  5
9C
330
1F
100
AcDbEntity
  8
0
  6
Continuous
 62
     7
370
    30
100
AcDbLine
 10
4.7210652232
 20
23.4357533718
 30
0.0
 11
4.7210652232
 21
23.4441562139
 31
0.0
  0
LINE
  5
9D
330
1F
100
AcDbEntity
  8
0
  6
Continuous
 62
     7
370
    30
100
AcDbLine
 10
4.7610652232
 20
23.4357533718
 30
0.0
 11
4.7610652232
 21
23.4433340738
 31
0.0
  0
LINE
  5
9E
330
1F
100
AcDbEntity
  8
0
  6
Continuous
 62
     7
370
    30
100
AcDbLine
 10
77.2460652232
 20
19.8391981304
 30
0.0
 11
77.2460652232
 21
34.8391981304
 31
0.0
  0
LINE
  5
9F
330
1F
100
AcDbEntity
  8
0
  6
Continuous
 62
     7
370
    30
100
AcDbLine
 10
77.2460652232
 20
19.8391981304
 30
0.0
 11
77.2180652232
 21
19.8391981304
 31
0.0
  0
LINE
  5
A0
330
1F
100
AcDbEntity
  8
0
  6
Continuous
 62
     7
370
    30
100
AcDbLine
 10
77.2460652232
 20
34.8391981304
 30
0.0
 11
77.2180652232
 21
34.8391981304
 31
0.0
  0
CIRCLE
  5
A1
330
1F
100
AcDbEntity
  8
0
  6
Continuous
 62
     7
370
    30
100
AcDbCircle
 10
77.6620652232
 20
34.4951981304
 30
0.0
 40
0.09375
  0
CIRCLE
  5
A2
330
1F
100
AcDbEntity
  8
0
  6
Continuous
 62
     7
370
    30
100
AcDbCircle
 10
80.0370652232
 20
34.4951981304
 30
0.0
 40
0.09375
  0
CIRCLE
  5
A3
330
1F
100
AcDbEntity
  8
0
  6
Continuous
 62
     7
370
    30
100
AcDbCircle
 10
80.0370652232
 20
20.1831981304
 30
0.0
 40
0.09375
  0
CIRCLE
  5
A4
330
1F
100
AcDbEntity
  8
0
  6
Continuous
 62
     7
370
    30
100
AcDbCircle
 10
79.1160652232
 20
27.3391981304
 30
0.0
 40
0.09375
  0
CIRCLE
  5
A5
330
1F
100
AcDbEntity
  8
0
  6
Continuous
 62
     7
370
    30
100
AcDbCircle
 10
77.6620652232
 20
20.1831981304
 30
0.0
 40
0.09375
  0
LINE
  5
A6
330
1F
100
AcDbEntity
  8
0
  6
Continuous
 62
     7
370
    30
100
AcDbLine
 10
81.1780652232
 20
19.8391981304
 30
0.0
 11
81.7870652232
 21
20.4481981304
 31
0.0
  0
LINE
  5
A7
330
1F
100
AcDbEntity
  8
0
  6
Continuous
 62
     7
370
    30
100
AcDbLine
 10
81.1780652232
 20
19.8391981304
 30
0.0
 11
77.2460652232
 21
19.8391981304
 31
0.0
  0
LINE
  5
A8
330
1F
100
AcDbEntity
  8
0
  6
Continuous
 62
     7
370
    30
100
AcDbLine
 10
81.1780652232
 20
34.8391981304
 30
0.0
 11
77.2460652232
 21
34.8391981304
 31
0.0
  0
LINE
  5
A9
330
1F
100
AcDbEntity
  8
0
  6
Continuous
 62
     7
370
    30
100
AcDbLine
 10
81.7870652232
 20
34.2301981304
 30
0.0
 11
81.1780652232
 21
34.8391981304
 31
0.0
  0
LINE
  5
AA
330
1F
100
AcDbEntity
  8
0
  6
Continuous
 62
     7
370
    30
100
AcDbLine
 10
81.7870652232
 20
20.4481981304
 30
0.0
 11
81.7870652232
 21
34.2301981304
 31
0.0
  0
LINE
  5
AB
330
1F
100
AcDbEntity
  8
0
  6
Continuous
 62
     7
370
    30
100
AcDbLine
 10
5.2720652232
 20
28.7276981462
 30
0.0
 11
5.2720652232
 21
44.6026981304
 31
0.0
  0
SPLINE
  5
AC
330
1F
100
AcDbEntity
  8
0
  6
Continuous
 62
     7
370
    30
100
AcDbSpline
210
0.0
220
0.0
230
1.0
 70
     8
 71
     3
 72
    13
 73
     9
 74
     0
 42
0.00000001
 43
0.00000001
 40
0.0
 40
0.0
 40
0.0
 40
0.0
 40
0.084660792690467
 40
0.2689600482623438
 40
0.4532593037223356
 40
0.637558558887047
 40
0.8218578137029349
 40
0.9999999999999999
 40
0.9999999999999999
 40
0.9999999999999999
 40
0.9999999999999999
 10
5.272065223215264
 20
28.72769814619135
 30
0.0
 10
5.272366049394145
 20
28.72126852682077
 30
0.0
 10
5.27332174826044
 20
28.70084217973302
 30
0.0
 10
5.284872719611304
 20
28.66754235414014
 30
0.0
 10
5.310992040718822
 20
28.63372072416046
 30
0.0
 10
5.346914155969524
 20
28.61075398822213
 30
0.0
 10
5.3882498576028
 20
28.6000376156331
 30
0.0
 10
5.415615059177658
 20
28.60477212373655
 30
0.0
 10
5.429065223215295
 20
28.60709916344261
 30
0.0
  0
SPLINE
  5
AD
330
1F
100
AcDbEntity
  8
0
  6
Continuous
 62
     7
370
    30
100
AcDbSpline
210
0.0
220
0.0
230
1.0
 70
     8
 71
     3
 72
    14
 73
    10
 74
     0
 42
0.00000001
 43
0.00000001
 40
0.0
 40
0.0
 40
0.0
 40
0.0
 40
0.0649920877121479
 40
0.2489725925942021
 40
0.4329530973731016
 40
0.6169336022750711
 40
0.8009141074751703
 40
0.9848946130230107
 40
1.0
 40
1.0
 40
1.0
 40
1.0
 10
5.429065223215295
 20
28.60854054335517
 30
0.0
 10
5.42440278532447
 20
28.60683501977804
 30
0.0
 10
5.406541853473333
 20
28.60030147636257
 30
0.0
 10
5.372365716755105
 20
28.60325851798772
 30
0.0
 10
5.332587916240521
 20
28.61769937842582
 30
0.0
 10
5.299799151632961
 20
28.64545275960282
 30
0.0
 10
5.278091288637349
 20
28.68219319608563
 30
0.0
 10
5.27221023353411
 20
28.71141324687255
 30
0.0
 10
5.272075449761301
 20
28.7265496881091
 30
0.0
 10
5.272065223215269
 20
28.72769814619134
 30
0.0
  0
SPLINE
  5
AE
330
1F
100
AcDbEntity
  8
0
  6
Continuous
 62
     7
370
    30
100
AcDbSpline
210
0.0
220
0.0
230
1.0
 70
    11
 71
     3
 72
    26
 73
    22
 74
     0
 42
0.00000001
 43
0.00000001
 40
0.0
 40
0.0
 40
0.0
 40
0.0
 40
0.0537939862511492
 40
0.1075870970775622
 40
0.1613905731726478
 40
0.2151179293272162
 40
0.2687125065822055
 40
0.3222248650356014
 40
0.3757783599454013
 40
0.4294590172007882
 40
0.4832455929954906
 40
0.5370465128014424
 40
0.590790704031253
 40
0.6444722090698667
 40
0.6981224095627756
 40
0.7517666471762469
 40
0.8054121147575405
 40
0.8590575584592992
 40
0.912701713843128
 40
0.9663518932376196
 40
1.0
 40
1.0
 40
1.0
 40
1.0
 10
4.960065223215293
 20
37.04019813044331
 30
0.0
 10
4.95763702049738
 20
37.06485646338335
 30
0.0
 10
4.952780654577308
 20
37.11417272798225
 30
0.0
 10
4.914943538308461
 20
37.17977429997983
 30
0.0
 10
4.85923232236201
 20
37.22960863240457
 30
0.0
 10
4.789726077443444
 20
37.25801869946487
 30
0.0
 10
4.714966742925741
 20
37.26184449820634
 30
0.0
 10
4.643210047079792
 20
37.24077141386599
 30
0.0
 10
4.582451796007067
 20
37.19720077729032
 30
0.0
 10
4.539445111029737
 20
37.13592991352198
 30
0.0
 10
4.51910822804234
 20
37.06376583669166
 30
0.0
 10
4.523839444581698
 20
36.98887790890868
 30
0.0
 10
4.553120255655387
 20
36.91980301727727
 30
0.0
 10
4.603597905536395
 20
36.86436163995485
 30
0.0
 10
4.669549017809899
 20
36.82877323539605
 30
0.0
 10
4.743555396806975
 20
36.81702018492879
 30
0.0
 10
4.817252757514346
 20
36.8304167414843
 30
0.0
 10
4.882458299748177
 20
36.86746130841097
 30
0.0
 10
4.931359520795453
 20
36.92393090673189
 30
0.0
 10
4.95659632978961
 20
36.98493209247066
 30
0.0
 10
4.959100153538412
 20
37.02482274386788
 30
0.0
 10
4.960065223215293
 20
37.04019813044331
 30
0.0
  0
LINE
  5
AF
330
1F
100
AcDbEntity
  8
0
  6
Continuous
 62
     7
370
    30
100
AcDbLine
 10
5.2720652232
 20
28.7276981462
 30
0.0
 11
2.1160652232
 21
28.7276981462
 31
0.0
  0
SPLINE
  5
B0
330
1F
100
AcDbEntity
  8
0
  6
Continuous
 62
     7
370
    30
100
AcDbSpline
210
0.0
220
0.0
230
1.0
 70
    11
 71
     3
 72
    26
 73
    22
 74
     0
 42
0.00000001
 43
0.00000001
 40
0.0
 40
0.0
 40
0.0
 40
0.0
 40
0.053704890874496
 40
0.10741153416054
 40
0.1610794460027728
 40
0.2147258943466534
 40
0.2683702560353309
 40
0.3220158538506898
 40
0.3756607409713811
 40
0.4293051300632872
 40
0.4829614262834144
 40
0.536660083029984
 40
0.5904259957897965
 40
0.6442327832607053
 40
0.6979939699522003
 40
0.7516303812755926
 40
0.8051567716422003
 40
0.8586838553279715
 40
0.91232123291482
 40
0.9660825947291733
 40
1.0
 40
1.0
 40
1.0
 40
1.0
 10
4.960065223215293
 20
36.29019813044331
 30
0.0
 10
4.957644955421681
 20
36.31482256940884
 30
0.0
 10
4.952804340860199
 20
36.36407225084496
 30
0.0
 10
4.915040918151089
 20
36.42964232812597
 30
0.0
 10
4.859427213413269
 20
36.47947258650037
 30
0.0
 10
4.790012454811275
 20
36.50795218973212
 30
0.0
 10
4.715216078303317
 20
36.51188771657982
 30
0.0
 10
4.643300463283358
 20
36.49083958063621
 30
0.0
 10
4.582416415750876
 20
36.44718383024888
 30
0.0
 10
4.539412119928058
 20
36.38585029649886
 30
0.0
 10
4.51912256488439
 20
36.31375042363332
 30
0.0
 10
4.523827958592246
 20
36.23897909418356
 30
0.0
 10
4.55303577067887
 20
36.16993125068991
 30
0.0
 10
4.60350382438072
 20
36.11442035538419
 30
0.0
 10
4.669509291042752
 20
36.07877958922671
 30
0.0
 10
4.743510853297329
 20
36.06702869997424
 30
0.0
 10
4.817094304265526
 20
36.08038150642977
 30
0.0
 10
4.882199570139031
 20
36.11727218646992
 30
0.0
 10
4.931144324267402
 20
36.17358413690165
 30
0.0
 10
4.956550539762928
 20
36.23464287497529
 30
0.0
 10
4.959084855653197
 20
36.27470183579748
 30
0.0
 10
4.960065223215293
 20
36.29019813044331
 30
0.0
  0
SPLINE
  5
B1
330
1F
100
AcDbEntity
  8
0
  6
Continuous
 62
     7
370
    30
100
AcDbSpline
210
0.0
220
0.0
230
1.0
 70
    11
 71
     3
 72
    26
 73
    22
 74
     0
 42
0.00000001
 43
0.00000001
 40
0.0
 40
0.0
 40
0.0
 40
0.0
 40
0.0536861755750015
 40
0.1073722604463169
 40
0.1610606991941427
 40
0.2147506695721371
 40
0.2684380821748326
 40
0.3221228404356388
 40
0.3758089905097849
 40
0.4294984062762307
 40
0.4831878644104022
 40
0.5368740748406479
 40
0.5905588171994429
 40
0.6442461625175727
 40
0.6979361188364245
 40
0.7516246186767885
 40
0.8053098683201867
 40
0.858995147118269
 40
0.9126836887101292
 40
0.966373634379635
 40
1.0
 40
1.0
 40
1.0
 40
1.0
 10
4.741065223215285
 20
42.34375796937059
 30
0.0
 10
4.751606826862298
 20
42.34303398443378
 30
0.0
 10
4.772690016346099
 20
42.34158601578334
 30
0.0
 10
4.800749632347103
 20
42.33028331269686
 30
0.0
 10
4.822081242080015
 20
42.31359329980948
 30
0.0
 10
4.834279372703886
 20
42.29267985716982
 30
0.0
 10
4.835968199388823
 20
42.27004955890364
 30
0.0
 10
4.826958248321809
 20
42.24820114593166
 30
0.0
 10
4.808265581815695
 20
42.22963429214797
 30
0.0
 10
4.781996327807314
 20
42.21648138861212
 30
0.0
 10
4.751111959904597
 20
42.21026976236857
 30
0.0
 10
4.719095734906277
 20
42.2117232773383
 30
0.0
 10
4.689556992010922
 20
42.22067157817204
 30
0.0
 10
4.665824448343878
 20
42.23607360925921
 30
0.0
 10
4.650573721657481
 20
42.25614780010766
 30
0.0
 10
4.645525559671144
 20
42.27859514805083
 30
0.0
 10
4.651247381699928
 20
42.30086004346131
 30
0.0
 10
4.667097794273005
 20
42.32048612117476
 30
0.0
 10
4.691274125363595
 20
42.33516198489959
 30
0.0
 10
4.717397230921268
 20
42.34271992759643
 30
0.0
 10
4.734484679583284
 20
42.34346935683845
 30
0.0
 10
4.741065223215285
 20
42.34375796937059
 30
0.0
  0
SPLINE
  5
B2
330
1F
100
AcDbEntity
  8
0
  6
Continuous
 62
     7
370
    30
100
AcDbSpline
210
0.0
220
0.0
230
1.0
 70
    11
 71
     3
 72
    26
 73
    22
 74
     0
 42
0.00000001
 43
0.00000001
 40
0.0
 40
0.0
 40
0.0
 40
0.0
 40
0.0536861755750017
 40
0.1073722604463168
 40
0.1610606991941454
 40
0.2147506695721415
 40
0.2684380821748314
 40
0.3221228404356353
 40
0.3758089905097877
 40
0.429498406276234
 40
0.4831878644104053
 40
0.5368740748406582
 40
0.5905588171994451
 40
0.6442461625175774
 40
0.6979361188364266
 40
0.7516246186767918
 40
0.8053098683201871
 40
0.8589951471182702
 40
0.9126836887101293
 40
0.9663736343796353
 40
1.0
 40
1.0
 40
1.0
 40
1.0
 10
4.741065223215281
 20
31.11922081298858
 30
0.0
 10
4.751606826862285
 20
31.11847901768235
 30
0.0
 10
4.772690016346087
 20
31.11699542832318
 30
0.0
 10
4.800749632347103
 20
31.10544517063779
 30
0.0
 10
4.822081242080028
 20
31.0884802538973
 30
0.0
 10
4.834279372703868
 20
31.06736941279764
 30
0.0
 10
4.835968199388827
 20
31.04470992110134
 30
0.0
 10
4.826958248321804
 20
31.02301217519323
 30
0.0
 10
4.808265581815686
 20
31.0047101259597
 30
0.0
 10
4.78199632780731
 20
30.99182005733757
 30
0.0
 10
4.751111959904611
 20
30.98575411657148
 30
0.0
 10
4.719095734906294
 20
30.98717230641197
 30
0.0
 10
4.689556992010904
 20
30.99591977195959
 30
0.0
 10
4.665824448343883
 20
31.01104347106163
 30
0.0
 10
4.650573721657481
 20
31.03088378565612
 30
0.0
 10
4.645525559671131
 20
31.05324427686862
 30
0.0
 10
4.651247381699919
 20
31.07560716919085
 30
0.0
 10
4.667097794273018
 20
31.09547396106765
 30
0.0
 10
4.691274125363573
 20
31.11042474028827
 30
0.0
 10
4.717397230921264
 20
31.11815778390408
 30
0.0
 10
4.734484679583275
 20
31.11892525309547
 30
0.0
 10
4.741065223215285
 20
31.11922081298858
 30
0.0
  0
LINE
  5
B3
330
1F
100
AcDbEntity
  8
0
  6
Continuous
 62
     7
370
    30
100
AcDbLine
 10
2.1160652232
 20
28.7276981462
 30
0.0
 11
2.1160652232
 21
44.6026981304
 31
0.0
  0
SPLINE
  5
B4
330
1F
100
AcDbEntity
  8
0
  6
Continuous
 62
     7
370
    30
100
AcDbSpline
210
0.0
220
0.0
230
1.0
 70
     8
 71
     3
 72
    12
 73
     8
 74
     0
 42
0.00000001
 43
0.00000001
 40
0.0
 40
0.0
 40
0.0
 40
0.0
 40
0.244883304941378
 40
0.4897661925808804
 40
0.7346599097359915
 40
0.9795606734958425
 40
1.0
 40
1.0
 40
1.0
 40
1.0
 10
4.741065223215285
 20
42.3197146545123
 30
0.0
 10
4.751591171870044
 20
42.31898947158515
 30
0.0
 10
4.772643051242452
 20
42.31753910696661
 30
0.0
 10
4.800937434946192
 20
42.30625549553631
 30
0.0
 10
4.821376857103054
 20
42.28949558230352
 30
0.0
 10
4.832163878138132
 20
42.27515456837555
 30
0.0
 10
4.832630308213465
 20
42.26711670357259
 30
0.0
 10
4.832666237637451
 20
42.26649754141378
 30
0.0
  0
SPLINE
  5
B5
330
1F
100
AcDbEntity
  8
0
  6
Continuous
 62
     7
370
    30
100
AcDbSpline
210
0.0
220
0.0
230
1.0
 70
     8
 71
     3
 72
    12
 73
     8
 74
     0
 42
0.00000001
 43
0.00000001
 40
0.0
 40
0.0
 40
0.0
 40
0.0
 40
0.1182767111043512
 40
0.3614091691577149
 40
0.6045565312914924
 40
0.8477103071871823
 40
1.0
 40
1.0
 40
1.0
 40
1.0
 10
4.650203947927717
 20
42.2657466599432
 30
0.0
 10
4.650878361481775
 20
42.26933931370463
 30
0.0
 10
4.65293911579229
 20
42.28031711312829
 30
0.0
 10
4.667447572624108
 20
42.29639596216361
 30
0.0
 10
4.691179265580757
 20
42.31113199942487
 30
0.0
 10
4.717410847006583
 20
42.31867478501897
 30
0.0
 10
4.734488448355603
 20
42.31942553306262
 30
0.0
 10
4.741065223215281
 20
42.31971465451231
 30
0.0
  0
SPLINE
  5
B6
330
1F
100
AcDbEntity
  8
0
  6
Continuous
 62
     7
370
    30
100
AcDbSpline
210
0.0
220
0.0
230
1.0
 70
     8
 71
     3
 72
    16
 73
    12
 74
     0
 42
0.00000001
 43
0.00000001
 40
0.0
 40
0.0
 40
0.0
 40
0.0
 40
0.0969212757307564
 40
0.218610646030883
 40
0.3403074824381769
 40
0.4620044157298325
 40
0.5836939240375282
 40
0.705380075983417
 40
0.8270721788691575
 40
0.9487702511080786
 40
1.0
 40
1.0
 40
1.0
 40
1.0
 10
4.832385878092777
 20
31.06457837652637
 30
0.0
 10
4.830535237799089
 20
31.05878115984578
 30
0.0
 10
4.826361028709056
 20
31.04570525598289
 30
0.0
 10
4.808068441596568
 20
31.02878404995162
 30
0.0
 10
4.782051094452934
 20
31.01585494859351
 30
0.0
 10
4.751090365240565
 20
31.00979876716907
 30
0.0
 10
4.719127716790998
 20
31.0112186162934
 30
0.0
 10
4.689451059735298
 20
31.0199491717477
 30
0.0
 10
4.666216633203081
 20
31.03513633615753
 30
0.0
 10
4.652412712032387
 20
31.05095326670721
 30
0.0
 10
4.650697066260467
 20
31.06146746637681
 30
0.0
 10
4.650188807372403
 20
31.06458229084722
 30
0.0
  0
LINE
  5
B7
330
1F
100
AcDbEntity
  8
0
  6
Continuous
 62
     7
370
    30
100
AcDbLine
 10
5.2720652232
 20
9.8536981304
 30
0.0
 11
5.2720652232
 21
25.7286981147
 31
0.0
  0
SPLINE
  5
B8
330
1F
100
AcDbEntity
  8
0
  6
Continuous
 62
     7
370
    30
100
AcDbSpline
210
0.0
220
0.0
230
1.0
 70
     8
 71
     3
 72
    13
 73
     9
 74
     0
 42
0.00000001
 43
0.00000001
 40
0.0
 40
0.0
 40
0.0
 40
0.0
 40
0.0846607926904686
 40
0.2689600482623488
 40
0.4532593037223441
 40
0.637558558887059
 40
0.8218578137029502
 40
1.0
 40
1.0
 40
1.0
 40
1.0
 10
5.272065223215269
 20
25.72869811469527
 30
0.0
 10
5.272366049394158
 20
25.73512773406585
 30
0.0
 10
5.273321748260424
 20
25.75555408115359
 30
0.0
 10
5.284872719611331
 20
25.78885390674647
 30
0.0
 10
5.310992040718809
 20
25.82267553672615
 30
0.0
 10
5.346914155969529
 20
25.84564227266448
 30
0.0
 10
5.3882498576028
 20
25.85635864525351
 30
0.0
 10
5.415615059177658
 20
25.85162413715006
 30
0.0
 10
5.42906522321529
 20
25.849297097444
 30
0.0
  0
SPLINE
  5
B9
330
1F
100
AcDbEntity
  8
0
  6
Continuous
 62
     7
370
    30
100
AcDbSpline
210
0.0
220
0.0
230
1.0
 70
     8
 71
     3
 72
    14
 73
    10
 74
     0
 42
0.00000001
 43
0.00000001
 40
0.0
 40
0.0
 40
0.0
 40
0.0
 40
0.0649920877121472
 40
0.2489725925942186
 40
0.4329530973730981
 40
0.6169336022750658
 40
0.8009141074751727
 40
0.9848946130230112
 40
1.0
 40
1.0
 40
1.0
 40
1.0
 10
5.429065223215295
 20
25.84785571753144
 30
0.0
 10
5.424402785324466
 20
25.84956124110857
 30
0.0
 10
5.406541853473342
 20
25.85609478452404
 30
0.0
 10
5.372365716755123
 20
25.85313774289889
 30
0.0
 10
5.3325879162405
 20
25.83869688246078
 30
0.0
 10
5.299799151632949
 20
25.81094350128379
 30
0.0
 10
5.278091288637371
 20
25.77420306480099
 30
0.0
 10
5.272210233534048
 20
25.74498301401406
 30
0.0
 10
5.272075449761309
 20
25.72984657277752
 30
0.0
 10
5.272065223215269
 20
25.72869811469527
 30
0.0
  0
LINE
  5
BA
330
1F
100
AcDbEntity
  8
0
  6
Continuous
 62
     7
370
    30
100
AcDbLine
 10
2.1160652232
 20
9.8536981304
 30
0.0
 11
2.1160652232
 21
25.7286981147
 31
0.0
  0
LINE
  5
BB
330
1F
100
AcDbEntity
  8
0
  6
Continuous
 62
     7
370
    30
100
AcDbLine
 10
2.1160652232
 20
25.7286981147
 30
0.0
 11
5.2720652232
 21
25.7286981147
 31
0.0
  0
SPLINE
  5
BC
330
1F
100
AcDbEntity
  8
0
  6
Continuous
 62
     7
370
    30
100
AcDbSpline
210
0.0
220
0.0
230
1.0
 70
    11
 71
     3
 72
    26
 73
    22
 74
     0
 42
0.00000001
 43
0.00000001
 40
0.0
 40
0.0
 40
0.0
 40
0.0
 40
0.0536861755750016
 40
0.1073722604463172
 40
0.1610606991941407
 40
0.2147506695721371
 40
0.2684380821748296
 40
0.3221228404356332
 40
0.3758089905097844
 40
0.4294984062762299
 40
0.483187864410401
 40
0.5368740748406464
 40
0.5905588171994405
 40
0.6442461625175773
 40
0.6979361188364227
 40
0.751624618676789
 40
0.8053098683201868
 40
0.8589951471182722
 40
0.9126836887101293
 40
0.9663736343796352
 40
0.9999999999999999
 40
0.9999999999999999
 40
0.9999999999999999
 40
0.9999999999999999
 10
4.741065223215285
 20
23.46975796937054
 30
0.0
 10
4.751606826862294
 20
23.46903398443373
 30
0.0
 10
4.772690016346091
 20
23.4675860157833
 30
0.0
 10
4.800749632347112
 20
23.45628331269682
 30
0.0
 10
4.822081242080019
 20
23.43959329980943
 30
0.0
 10
4.83427937270389
 20
23.41867985716977
 30
0.0
 10
4.835968199388819
 20
23.3960495589036
 30
0.0
 10
4.826958248321813
 20
23.37420114593161
 30
0.0
 10
4.808265581815704
 20
23.35563429214793
 30
0.0
 10
4.781996327807319
 20
23.34248138861208
 30
0.0
 10
4.751111959904614
 20
23.33626976236852
 30
0.0
 10
4.719095734906286
 20
23.33772327733825
 30
0.0
 10
4.689556992010909
 20
23.34667157817199
 30
0.0
 10
4.665824448343883
 20
23.36207360925916
 30
0.0
 10
4.650573721657485
 20
23.38214780010761
 30
0.0
 10
4.645525559671126
 20
23.40459514805078
 30
0.0
 10
4.651247381699933
 20
23.42686004346126
 30
0.0
 10
4.667097794272991
 20
23.44648612117472
 30
0.0
 10
4.691274125363595
 20
23.46116198489955
 30
0.0
 10
4.717397230921268
 20
23.46871992759638
 30
0.0
 10
4.734484679583284
 20
23.4694693568384
 30
0.0
 10
4.741065223215285
 20
23.46975796937054
 30
0.0
  0
SPLINE
  5
BD
330
1F
100
AcDbEntity
  8
0
  6
Continuous
 62
     7
370
    30
100
AcDbSpline
210
0.0
220
0.0
230
1.0
 70
    11
 71
     3
 72
    26
 73
    22
 74
     0
 42
0.00000001
 43
0.00000001
 40
0.0
 40
0.0
 40
0.0
 40
0.0
 40
0.0536861755750016
 40
0.1073722604463193
 40
0.161060699194145
 40
0.2147506695721424
 40
0.2684380821748351
 40
0.3221228404356352
 40
0.3758089905097834
 40
0.429498406276229
 40
0.4831878644104007
 40
0.5368740748406535
 40
0.5905588171994395
 40
0.6442461625175792
 40
0.6979361188364285
 40
0.7516246186767938
 40
0.8053098683201905
 40
0.8589951471182763
 40
0.9126836887101363
 40
0.966373634379635
 40
1.0
 40
1.0
 40
1.0
 40
1.0
 10
4.74106522321529
 20
12.11263829151609
 30
0.0
 10
4.730523619568281
 20
12.11336227645291
 30
0.0
 10
4.709440430084497
 20
12.11481024510335
 30
0.0
 10
4.681380814083462
 20
12.12611294818982
 30
0.0
 10
4.660049204350538
 20
12.1428029610772
 30
0.0
 10
4.647851073726702
 20
12.16371640371686
 30
0.0
 10
4.646162247041743
 20
12.18634670198304
 30
0.0
 10
4.655172198108762
 20
12.20819511495503
 30
0.0
 10
4.67386486461488
 20
12.22676196873872
 30
0.0
 10
4.700134118623256
 20
12.23991487227456
 30
0.0
 10
4.73101848652596
 20
12.24612649851812
 30
0.0
 10
4.76303471152428
 20
12.24467298354839
 30
0.0
 10
4.792573454419657
 20
12.23572468271465
 30
0.0
 10
4.816305998086688
 20
12.22032265162748
 30
0.0
 10
4.831556724773076
 20
12.20024846077903
 30
0.0
 10
4.836604886759435
 20
12.17780111283585
 30
0.0
 10
4.830883064730642
 20
12.15553621742538
 30
0.0
 10
4.815032652157575
 20
12.13591013971192
 30
0.0
 10
4.790856321066971
 20
12.12123427598709
 30
0.0
 10
4.764733215509316
 20
12.11367633329026
 30
0.0
 10
4.747645766847295
 20
12.11292690404824
 30
0.0
 10
4.74106522321529
 20
12.11263829151609
 30
0.0
  0
SPLINE
  5
BE
330
1F
100
AcDbEntity
  8
0
  6
Continuous
 62
     7
370
    30
100
AcDbSpline
210
0.0
220
0.0
230
1.0
 70
     8
 71
     3
 72
    12
 73
     8
 74
     0
 42
0.00000001
 43
0.00000001
 40
0.0
 40
0.0
 40
0.0
 40
0.0
 40
0.2405043090670139
 40
0.4810082082943335
 40
0.7215227433841788
 40
0.9620441990715992
 40
1.0
 40
1.0
 40
1.0
 40
1.0
 10
4.741065223215285
 20
23.44571465451226
 30
0.0
 10
4.751593065377686
 20
23.44498968512231
 30
0.0
 10
4.772648731762146
 20
23.44353974757782
 30
0.0
 10
4.800914712493979
 20
23.43225293304911
 30
0.0
 10
4.821462071546823
 20
23.41550519222215
 30
0.0
 10
4.832343902748208
 20
23.40061970504363
 30
0.0
 10
4.832736000590756
 20
23.39201829223432
 30
0.0
 10
4.832789442612684
 20
23.39084593971885
 30
0.0
  0
SPLINE
  5
BF
330
1F
100
AcDbEntity
  8
0
  6
Continuous
 62
     7
370
    30
100
AcDbSpline
210
0.0
220
0.0
230
1.0
 70
     8
 71
     3
 72
    12
 73
     8
 74
     0
 42
0.00000001
 43
0.00000001
 40
0.0
 40
0.0
 40
0.0
 40
0.0
 40
0.1277272229072181
 40
0.3682537316866742
 40
0.6087949848011888
 40
0.8493425829334483
 40
1.0
 40
1.0
 40
1.0
 40
1.0
 10
4.64995374143063
 20
23.39077277865007
 30
0.0
 10
4.650675300167882
 20
23.39469754787118
 30
0.0
 10
4.652755645231197
 20
23.40601315372862
 30
0.0
 10
4.667421972206111
 20
23.42240124956431
 30
0.0
 10
4.69118619894409
 20
23.43713056743764
 30
0.0
 10
4.717409844535577
 20
23.444674992065
 30
0.0
 10
4.734488169632295
 20
23.44542559062889
 30
0.0
 10
4.741065223215285
 20
23.44571465451226
 30
0.0
  0
SPLINE
  5
C0
330
1F
100
AcDbEntity
  8
0
  6
Continuous
 62
     7
370
    30
100
AcDbSpline
210
0.0
220
0.0
230
1.0
 70
     8
 71
     3
 72
    12
 73
     8
 74
     0
 42
0.00000001
 43
0.00000001
 40
0.0
 40
0.0
 40
0.0
 40
0.0
 40
0.244883304941394
 40
0.4897661925809075
 40
0.7346599097360238
 40
0.9795606734958852
 40
1.0
 40
1.0
 40
1.0
 40
1.0
 10
4.741065223215285
 20
12.13668160637438
 30
0.0
 10
4.730539274560531
 20
12.13740678930153
 30
0.0
 10
4.709487395188122
 20
12.13885715392008
 30
0.0
 10
4.681193011484374
 20
12.15014076535037
 30
0.0
 10
4.660753589327525
 20
12.16690067858318
 30
0.0
 10
4.649966568292482
 20
12.18124169251112
 30
0.0
 10
4.649500138217096
 20
12.18927955731409
 30
0.0
 10
4.649464208793123
 20
12.18989871947289
 30
0.0
  0
SPLINE
  5
C1
330
1F
100
AcDbEntity
  8
0
  6
Continuous
 62
     7
370
    30
100
AcDbSpline
210
0.0
220
0.0
230
1.0
 70
     8
 71
     3
 72
    12
 73
     8
 74
     0
 42
0.00000001
 43
0.00000001
 40
0.0
 40
0.0
 40
0.0
 40
0.0
 40
0.1182767111043702
 40
0.3614091691577417
 40
0.6045565312915218
 40
0.8477103071872143
 40
1.0
 40
1.0
 40
1.0
 40
1.0
 10
4.831926498502858
 20
12.19064960094349
 30
0.0
 10
4.8312520849488
 20
12.18705694718205
 30
0.0
 10
4.82919133063828
 20
12.17607914775839
 30
0.0
 10
4.814682873806436
 20
12.16000029872308
 30
0.0
 10
4.790951180849834
 20
12.14526426146181
 30
0.0
 10
4.764719599423974
 20
12.13772147586771
 30
0.0
 10
4.747641998074954
 20
12.13697072782407
 30
0.0
 10
4.74106522321529
 20
12.13668160637438
 30
0.0
  0
SPLINE
  5
C2
330
1F
100
AcDbEntity
  8
0
  6
Continuous
 62
     7
370
    30
100
AcDbSpline
210
0.0
220
0.0
230
1.0
 70
     8
 71
     3
 72
    13
 73
     9
 74
     0
 42
0.00000001
 43
0.00000001
 40
0.0
 40
0.0
 40
0.0
 40
0.0
 40
0.1803680896811656
 40
0.3705518459606303
 40
0.555375848750583
 40
0.7455594590746454
 40
0.8719455840917782
 40
1.0
 40
1.0
 40
1.0
 40
1.0
 10
77.15022637356226
 20
46.21200376527137
 30
0.0
 10
77.15322102798581
 20
46.21303765616276
 30
0.0
 10
77.15937330651033
 20
46.2151617024894
 30
0.0
 10
77.16675898721824
 20
46.21834565918669
 30
0.0
 10
77.17261325164517
 20
46.2215849690307
 30
0.0
 10
77.17603342943873
 20
46.22446032965262
 30
0.0
 10
77.17778276015414
 20
46.22700673010097
 30
0.0
 10
77.17797065819772
 20
46.22846447765694
 30
0.0
 10
77.17806522321528
 20
46.22919813044332
 30
0.0
  0
LINE
  5
C3
330
1F
100
AcDbEntity
  8
0
  6
Continuous
 62
     7
370
    30
100
AcDbLine
 10
77.1780652232
 20
46.2001981304
 30
0.0
 11
77.1780652232
 21
46.2291981304
 31
0.0
  0
LINE
  5
C4
330
1F
100
AcDbEntity
  8
0
  6
Continuous
 62
     7
370
    30
100
AcDbLine
 10
77.1780652232
 20
46.1613592808
 30
0.0
 11
77.1780652232
 21
46.2001981304
 31
0.0
  0
LINE
  5
C5
330
1F
100
AcDbEntity
  8
0
  6
Continuous
 62
     7
370
    30
100
AcDbLine
 10
77.1716751266
 20
46.2291981304
 30
0.0
 11
77.1502263736
 21
46.2291981304
 31
0.0
  0
LINE
  5
C6
330
1F
100
AcDbEntity
  8
0
  6
Continuous
 62
     7
370
    30
100
AcDbLine
 10
77.1780652232
 20
46.2291981304
 30
0.0
 11
77.1716751266
 21
46.2291981304
 31
0.0
  0
LINE
  5
C7
330
1F
100
AcDbEntity
  8
0
  6
Continuous
 62
     7
370
    30
100
AcDbLine
 10
77.1090652232
 20
46.2291981304
 30
0.0
 11
77.1090652232
 21
46.2691981304
 31
0.0
  0
ARC
  5
C8
330
1F
100
AcDbEntity
  8
0
  6
Continuous
 62
     7
370
    30
100
AcDbCircle
 10
77.1090652232
 20
46.2001981304
 30
0.0
 40
0.0690000000000026
100
AcDbArc
 50
24.8528886016
 51
90.0
  0
LINE
  5
C9
330
1F
100
AcDbEntity
  8
0
  6
Continuous
 62
     7
370
    30
100
AcDbLine
 10
76.4280652232
 20
46.2691981304
 30
0.0
 11
76.4280652232
 21
46.2291981304
 31
0.0
  0
LINE
  5
CA
330
1F
100
AcDbEntity
  8
0
  6
Continuous
 62
     7
370
    30
100
AcDbLine
 10
77.1090652232
 20
46.2691981304
 30
0.0
 11
76.4280652232
 21
46.2691981304
 31
0.0
  0
LINE
  5
CB
330
1F
100
AcDbEntity
  8
0
  6
Continuous
 62
     7
370
    30
100
AcDbLine
 10
77.1502263736
 20
46.2691981304
 30
0.0
 11
77.1090652232
 21
46.2691981304
 31
0.0
  0
LINE
  5
CC
330
1F
100
AcDbEntity
  8
0
  6
Continuous
 62
     7
370
    30
100
AcDbLine
 10
76.4280652232
 20
46.2691981304
 30
0.0
 11
28.5195805795
 21
46.2691981304
 31
0.0
  0
LINE
  5
CD
330
1F
100
AcDbEntity
  8
0
  6
Continuous
 62
     7
370
    30
100
AcDbLine
 10
10.4795498669
 20
46.2691981304
 30
0.0
 11
5.5359040729
 21
46.2691981304
 31
0.0
  0
LINE
  5
CE
330
1F
100
AcDbEntity
  8
0
  6
Continuous
 62
     7
370
    30
100
AcDbLine
 10
77.1502263736
 20
46.2555764629
 30
0.0
 11
77.1502263736
 21
46.2691981304
 31
0.0
  0
LINE
  5
CF
330
1F
100
AcDbEntity
  8
0
  6
Continuous
 62
     7
370
    30
100
AcDbLine
 10
5.5359040729
 20
46.2291981304
 30
0.0
 11
5.5359040729
 21
46.2691981304
 31
0.0
  0
LINE
  5
D0
330
1F
100
AcDbEntity
  8
0
  6
Continuous
 62
     7
370
    30
100
AcDbLine
 10
5.5080652232
 20
46.1891981304
 30
0.0
 11
5.5080652232
 21
46.1613592808
 31
0.0
  0
LINE
  5
D1
330
1F
100
AcDbEntity
  8
0
  6
Continuous
 62
     7
370
    30
100
AcDbLine
 10
77.1780652232
 20
46.2013592808
 30
0.0
 11
77.2180652232
 21
46.2013592808
 31
0.0
  0
LINE
  5
D2
330
1F
100
AcDbEntity
  8
0
  6
Continuous
 62
     7
370
    30
100
AcDbLine
 10
77.2180652232
 20
46.1613592808
 30
0.0
 11
77.2180652232
 21
46.2013592808
 31
0.0
  0
LINE
  5
D3
330
1F
100
AcDbEntity
  8
0
  6
Continuous
 62
     7
370
    30
100
AcDbLine
 10
77.1480652232
 20
46.1591981304
 30
0.0
 11
5.5380652232
 21
46.1591981304
 31
0.0
  0
LINE
  5
D4
330
1F
100
AcDbEntity
  8
0
  6
Continuous
 62
     7
370
    30
100
AcDbLine
 10
77.1480652232
 20
8.1741981304
 30
0.0
 11
77.1480652232
 21
46.1591981304
 31
0.0
  0
LINE
  5
D5
330
1F
100
AcDbEntity
  8
0
  6
Continuous
 62
     7
370
    30
100
AcDbLine
 10
5.5380652232
 20
8.1741981304
 30
0.0
 11
77.1480652232
 21
8.1741981304
 31
0.0
  0
CIRCLE
  5
D6
330
1F
100
AcDbEntity
  8
0
  6
Continuous
 62
     7
370
    30
100
AcDbCircle
 10
76.0930652232
 20
8.6351981304
 30
0.0
 40
0.0940000000000012
  0
CIRCLE
  5
D7
330
1F
100
AcDbEntity
  8
0
  6
Continuous
 62
     7
370
    30
100
AcDbCircle
 10
64.5930652232
 20
8.6351981304
 30
0.0
 40
0.0940000000000012
  0
CIRCLE
  5
D8
330
1F
100
AcDbEntity
  8
0
  6
Continuous
 62
     7
370
    30
100
AcDbCircle
 10
18.0930652232
 20
8.6351981304
 30
0.0
 40
0.094000000000003
  0
CIRCLE
  5
D9
330
1F
100
AcDbEntity
  8
0
  6
Continuous
 62
     7
370
    30
100
AcDbCircle
 10
6.5930652232
 20
8.6351981304
 30
0.0
 40
0.0939999999999976
  0
CIRCLE
  5
DA
330
1F
100
AcDbEntity
  8
0
  6
Continuous
 62
     7
370
    30
100
AcDbCircle
 10
6.5930652232
 20
45.6981981304
 30
0.0
 40
0.0940000000000012
  0
CIRCLE
  5
DB
330
1F
100
AcDbEntity
  8
0
  6
Continuous
 62
     7
370
    30
100
AcDbCircle
 10
18.0930652232
 20
45.6981981304
 30
0.0
 40
0.0940000000000012
  0
CIRCLE
  5
DC
330
1F
100
AcDbEntity
  8
0
  6
Continuous
 62
     7
370
    30
100
AcDbCircle
 10
64.5930652232
 20
45.6981981304
 30
0.0
 40
0.0940000000000012
  0
CIRCLE
  5
DD
330
1F
100
AcDbEntity
  8
0
  6
Continuous
 62
     7
370
    30
100
AcDbCircle
 10
76.0930652232
 20
45.6981981304
 30
0.0
 40
0.0940000000000012
  0
CIRCLE
  5
DE
330
1F
100
AcDbEntity
  8
0
  6
Continuous
 62
     7
370
    30
100
AcDbCircle
 10
41.3430652232
 20
8.6351981304
 30
0.0
 40
0.094000000000003
  0
CIRCLE
  5
DF
330
1F
100
AcDbEntity
  8
0
  6
Continuous
 62
     7
370
    30
100
AcDbCircle
 10
41.3430652232
 20
45.6981981304
 30
0.0
 40
0.0940000000000012
  0
CIRCLE
  5
E0
330
1F
100
AcDbEntity
  8
0
  6
Continuous
 62
     7
370
    30
100
AcDbCircle
 10
76.7490652232
 20
44.4161981304
 30
0.0
 40
0.0469999999999899
  0
CIRCLE
  5
E1
330
1F
100
AcDbEntity
  8
0
  6
Continuous
 62
     7
370
    30
100
AcDbCircle
 10
76.7490652232
 20
32.9161981304
 30
0.0
 40
0.046999999999997
  0
CIRCLE
  5
E2
330
1F
100
AcDbEntity
  8
0
  6
Continuous
 62
     7
370
    30
100
AcDbCircle
 10
76.7490652232
 20
21.4171981304
 30
0.0
 40
0.046999999999997
  0
CIRCLE
  5
E3
330
1F
100
AcDbEntity
  8
0
  6
Continuous
 62
     7
370
    30
100
AcDbCircle
 10
76.7490652232
 20
9.9171981304
 30
0.0
 40
0.0470000000000006
  0
CIRCLE
  5
E4
330
1F
100
AcDbEntity
  8
0
  6
Continuous
 62
     7
370
    30
100
AcDbCircle
 10
29.7180652232
 20
8.6351981304
 30
0.0
 40
0.0470000000000006
  0
CIRCLE
  5
E5
330
1F
100
AcDbEntity
  8
0
  6
Continuous
 62
     7
370
    30
100
AcDbCircle
 10
52.9680652232
 20
8.6351981304
 30
0.0
 40
0.0470000000000006
  0
CIRCLE
  5
E6
330
1F
100
AcDbEntity
  8
0
  6
Continuous
 62
     7
370
    30
100
AcDbCircle
 10
52.9680652232
 20
45.6981981304
 30
0.0
 40
0.0470000000000041
  0
CIRCLE
  5
E7
330
1F
100
AcDbEntity
  8
0
  6
Continuous
 62
     7
370
    30
100
AcDbCircle
 10
29.7180652232
 20
45.6981981304
 30
0.0
 40
0.046999999999997
  0
SPLINE
  5
E8
330
1F
100
AcDbEntity
  8
0
  6
Continuous
 62
     7
370
    30
100
AcDbSpline
210
0.0
220
0.0
230
1.0
 70
     8
 71
     3
 72
    11
 73
     7
 74
     0
 42
0.00000001
 43
0.00000001
 40
0.0
 40
0.0
 40
0.0
 40
0.0
 40
0.250000000000018
 40
0.4999999999999978
 40
0.7500000000000027
 40
1.0
 40
1.0
 40
1.0
 40
1.0
 10
77.14806522321527
 20
46.15919813044332
 30
0.0
 10
77.15723781628172
 20
46.15937822630557
 30
0.0
 10
77.17558300241458
 20
46.15973841803007
 30
0.0
 10
77.19872114801136
 20
46.16027870561681
 30
0.0
 10
77.21490859292994
 20
46.16081899320357
 30
0.0
 10
77.21701301312017
 20
46.16117918492807
 30
0.0
 10
77.21806522321528
 20
46.16135928079031
 30
0.0
  0
LINE
  5
E9
330
1F
100
AcDbEntity
  8
0
  6
Continuous
 62
     7
370
    30
100
AcDbLine
 10
77.2180652232
 20
8.1720369801
 30
0.0
 11
77.2180652232
 21
46.1613592808
 31
0.0
  0
SPLINE
  5
EA
330
1F
100
AcDbEntity
  8
0
  6
Continuous
 62
     7
370
    30
100
AcDbSpline
210
0.0
220
0.0
230
1.0
 70
     8
 71
     3
 72
    11
 73
     7
 74
     0
 42
0.00000001
 43
0.00000001
 40
0.0
 40
0.0
 40
0.0
 40
0.0
 40
0.2499999999999979
 40
0.5000000000000017
 40
0.7499999999999819
 40
1.0
 40
1.0
 40
1.0
 40
1.0
 10
77.21806522321528
 20
8.172036980096335
 30
0.0
 10
77.21701301312017
 20
8.172217075958587
 30
0.0
 10
77.21490859292994
 20
8.172577267683081
 30
0.0
 10
77.19872114801137
 20
8.17311755526983
 30
0.0
 10
77.17558300241457
 20
8.173657842856578
 30
0.0
 10
77.15723781628172
 20
8.174018034581074
 30
0.0
 10
77.14806522321527
 20
8.17419813044332
 30
0.0
  0
SPLINE
  5
EB
330
1F
100
AcDbEntity
  8
0
  6
Continuous
 62
     7
370
    30
100
AcDbSpline
210
0.0
220
0.0
230
1.0
 70
     8
 71
     3
 72
    11
 73
     7
 74
     0
 42
0.00000001
 43
0.00000001
 40
0.0
 40
0.0
 40
0.0
 40
0.0
 40
0.2500000000000075
 40
0.4999999999999934
 40
0.7500000000000014
 40
1.0
 40
1.0
 40
1.0
 40
1.0
 10
77.14806522321528
 20
8.17419813044332
 30
0.0
 10
77.14824531907753
 20
8.165025537376884
 30
0.0
 10
77.14860551080206
 20
8.146680351244008
 30
0.0
 10
77.14914579838877
 20
8.12354220564723
 30
0.0
 10
77.14968608597552
 20
8.107354760728656
 30
0.0
 10
77.15004627770001
 20
8.105250340538431
 30
0.0
 10
77.15022637356226
 20
8.104198130443319
 30
0.0
  0
LINE
  5
EC
330
1F
100
AcDbEntity
  8
0
  6
Continuous
 62
     7
370
    30
100
AcDbLine
 10
5.5359040729
 20
8.1041981304
 30
0.0
 11
77.1502263736
 21
8.1041981304
 31
0.0
  0
SPLINE
  5
ED
330
1F
100
AcDbEntity
  8
0
  6
Continuous
 62
     7
370
    30
100
AcDbSpline
210
0.0
220
0.0
230
1.0
 70
     8
 71
     3
 72
    11
 73
     7
 74
     0
 42
0.00000001
 43
0.00000001
 40
0.0
 40
0.0
 40
0.0
 40
0.0
 40
0.2499999999999992
 40
0.500000000000007
 40
0.7499999999999934
 40
1.0
 40
1.0
 40
1.0
 40
1.0
 10
5.535904072868295
 20
8.104198130443319
 30
0.0
 10
5.536084168730543
 20
8.105250340538431
 30
0.0
 10
5.536444360455039
 20
8.107354760728656
 30
0.0
 10
5.536984648041795
 20
8.12354220564723
 30
0.0
 10
5.537524935628534
 20
8.146680351244008
 30
0.0
 10
5.53788512735303
 20
8.16502553737688
 30
0.0
 10
5.538065223215282
 20
8.17419813044332
 30
0.0
  0
SPLINE
  5
EE
330
1F
100
AcDbEntity
  8
0
  6
Continuous
 62
     7
370
    30
100
AcDbSpline
210
0.0
220
0.0
230
1.0
 70
     8
 71
     3
 72
    11
 73
     7
 74
     0
 42
0.00000001
 43
0.00000001
 40
0.0
 40
0.0
 40
0.0
 40
0.0
 40
0.2499999999999958
 40
0.4999999999999986
 40
0.7499999999999797
 40
1.0
 40
1.0
 40
1.0
 40
1.0
 10
77.15022637356226
 20
46.22919813044332
 30
0.0
 10
77.15004627770001
 20
46.2281459203482
 30
0.0
 10
77.14968608597552
 20
46.22604150015798
 30
0.0
 10
77.14914579838876
 20
46.2098540552394
 30
0.0
 10
77.14860551080203
 20
46.18671590964263
 30
0.0
 10
77.14824531907756
 20
46.16837072350977
 30
0.0
 10
77.14806522321528
 20
46.15919813044332
 30
0.0
  0
LINE
  5
EF
330
1F
100
AcDbEntity
  8
0
  6
Continuous
 62
     7
370
    30
100
AcDbLine
 10
77.1502263736
 20
46.2291981304
 30
0.0
 11
77.1502263736
 21
46.2151957561
 31
0.0
  0
SPLINE
  5
F0
330
1F
100
AcDbEntity
  8
0
  6
Continuous
 62
     7
370
    30
100
AcDbSpline
210
0.0
220
0.0
230
1.0
 70
     8
 71
     3
 72
    10
 73
     6
 74
     0
 42
0.00000001
 43
0.00000001
 40
0.0
 40
0.0
 40
0.0
 40
0.0
 40
0.4248084781306962
 40
0.8496169562613218
 40
1.0
 40
1.0
 40
1.0
 40
1.0
 10
5.538065223215265
 20
46.15919813044332
 30
0.0
 10
5.537885127353017
 20
46.16824635039237
 30
0.0
 10
5.537524935628513
 20
46.18634279029049
 30
0.0
 10
5.537100989611615
 20
46.20596240998948
 30
0.0
 10
5.536857139456976
 20
46.21238744682561
 30
0.0
 10
5.536793385164571
 20
46.21406726399747
 30
0.0
  0
LINE
  5
F1
330
1F
100
AcDbEntity
  8
0
  6
Continuous
 62
     7
370
    30
100
AcDbLine
 10
5.5359040729
 20
46.2291981304
 30
0.0
 11
5.5359040729
 21
46.2281981304
 31
0.0
  0
LINE
  5
F2
330
1F
100
AcDbEntity
  8
0
  6
Continuous
 62
     7
370
    30
100
AcDbLine
 10
77.2180652232
 20
46.1613592808
 30
0.0
 11
77.1780652232
 21
46.1613592808
 31
0.0
  0
LINE
  5
F3
330
1F
100
AcDbEntity
  8
0
  6
Continuous
 62
     7
370
    30
100
AcDbLine
 10
77.2180652232
 20
8.1720369801
 30
0.0
 11
77.1780652232
 21
8.1720369801
 31
0.0
  0
LINE
  5
F4
330
1F
100
AcDbEntity
  8
0
  6
Continuous
 62
     7
370
    30
100
AcDbLine
 10
77.1502263736
 20
8.1041981304
 30
0.0
 11
77.1502263736
 21
8.1441981304
 31
0.0
  0
LINE
  5
F5
330
1F
100
AcDbEntity
  8
0
  6
Continuous
 62
     7
370
    30
100
AcDbLine
 10
5.5359040729
 20
8.1041981304
 30
0.0
 11
5.5359040729
 21
8.1441981304
 31
0.0
  0
LINE
  5
F6
330
1F
100
AcDbEntity
  8
0
  6
Continuous
 62
     7
370
    30
100
AcDbLine
 10
5.5359040729
 20
46.2291981304
 30
0.0
 11
77.1502263736
 21
46.2291981304
 31
0.0
  0
SPLINE
  5
F7
330
1F
100
AcDbEntity
  8
0
  6
Continuous
 62
     7
370
    30
100
AcDbSpline
210
0.0
220
0.0
230
1.0
 70
     8
 71
     3
 72
    11
 73
     7
 74
     0
 42
0.00000001
 43
0.00000001
 40
0.0
 40
0.0
 40
0.0
 40
0.0
 40
0.2500000000000047
 40
0.5000000000000049
 40
0.7500000000000023
 40
1.0
 40
1.0
 40
1.0
 40
1.0
 10
5.538065223215291
 20
8.174198130443317
 30
0.0
 10
5.52889263014885
 20
8.174018034581069
 30
0.0
 10
5.510547444015969
 20
8.173657842856574
 30
0.0
 10
5.487409298419208
 20
8.173117555269835
 30
0.0
 10
5.471221853500612
 20
8.172577267683078
 30
0.0
 10
5.469117433310388
 20
8.172217075958581
 30
0.0
 10
5.468065223215284
 20
8.172036980096335
 30
0.0
  0
LINE
  5
F8
330
1F
100
AcDbEntity
  8
0
  6
Continuous
 62
     7
370
    30
100
AcDbLine
 10
5.4680652232
 20
8.2353638419
 30
0.0
 11
5.4680652232
 21
8.1720369801
 31
0.0
  0
SPLINE
  5
F9
330
1F
100
AcDbEntity
  8
0
  6
Continuous
 62
     7
370
    30
100
AcDbSpline
210
0.0
220
0.0
230
1.0
 70
     8
 71
     3
 72
    10
 73
     6
 74
     0
 42
0.00000001
 43
0.00000001
 40
0.0
 40
0.0
 40
0.0
 40
0.0
 40
0.4136454399127328
 40
0.8272908798254637
 40
1.0
 40
1.0
 40
1.0
 40
1.0
 10
5.46806522321528
 20
46.16135928079031
 30
0.0
 10
5.469184468062625
 20
46.16117918492806
 30
0.0
 10
5.471422957757329
 20
46.16081899320355
 30
0.0
 10
5.483657206520586
 20
46.16038360616706
 30
0.0
 10
5.494774978725239
 20
46.1601283149928
 30
0.0
 10
5.498049687896908
 20
46.16005311968078
 30
0.0
  0
SPLINE
  5
FA
330
1F
100
AcDbEntity
  8
0
  6
Continuous
 62
     7
370
    30
100
AcDbSpline
210
0.0
220
0.0
230
1.0
 70
     8
 71
     3
 72
     9
 73
     5
 74
     0
 42
0.00000001
 43
0.00000001
 40
0.0
 40
0.0
 40
0.0
 40
0.0
 40
0.323293310022827
 40
1.0
 40
1.0
 40
1.0
 40
1.0
 10
5.500427966224596
 20
46.15999653778101
 30
0.0
 10
5.503939457429349
 20
46.15991049786403
 30
0.0
 10
5.514801083995318
 20
46.15964436208481
 30
0.0
 10
5.528675984930003
 20
46.15937822630557
 30
0.0
 10
5.538065223215273
 20
46.15919813044332
 30
0.0
  0
LINE
  5
FB
330
1F
100
AcDbEntity
  8
0
  6
Continuous
 62
     7
370
    30
100
AcDbLine
 10
5.4680652232
 20
8.1720369801
 30
0.0
 11
5.5080652232
 21
8.1720369801
 31
0.0
  0
LINE
  5
FC
330
1F
100
AcDbEntity
  8
0
  6
Continuous
 62
     7
370
    30
100
AcDbLine
 10
5.4680652232
 20
46.1613592808
 30
0.0
 11
5.4970652232
 21
46.1613592808
 31
0.0
  0
LINE
  5
FD
330
1F
100
AcDbEntity
  8
0
  6
Continuous
 62
     7
370
    30
100
AcDbLine
 10
5.4990652232
 20
46.1613592808
 30
0.0
 11
5.5080652232
 21
46.1613592808
 31
0.0
  0
ARC
  5
FE
330
1F
100
AcDbEntity
  8
0
  6
Continuous
 62
     7
370
    30
100
AcDbCircle
 10
22.4995652232
 20
5.0581827741
 30
0.0
 40
0.4375000000000027
100
AcDbArc
 50
278.2793756981
 51
81.7206243019
  0
LINE
  5
FF
330
1F
100
AcDbEntity
  8
0
  6
Continuous
 62
     7
370
    30
100
AcDbLine
 10
22.5625652232
 20
5.4281230125
 30
0.0
 11
22.5625652232
 21
5.4911230125
 31
0.0
  0
LINE
  5
100
330
1F
100
AcDbEntity
  8
0
  6
Continuous
 62
     7
370
    30
100
AcDbLine
 10
22.4365652232
 20
5.4281230125
 30
0.0
 11
22.5625652232
 21
5.4281230125
 31
0.0
  0
LINE
  5
101
330
1F
100
AcDbEntity
  8
0
  6
Continuous
 62
     7
370
    30
100
AcDbLine
 10
22.4365652232
 20
5.4911230125
 30
0.0
 11
22.4365652232
 21
5.4281230125
 31
0.0
  0
ARC
  5
102
330
1F
100
AcDbEntity
  8
0
  6
Continuous
 62
     7
370
    30
100
AcDbCircle
 10
22.4995652232
 20
5.0581827741
 30
0.0
 40
0.4375000000000017
100
AcDbArc
 50
98.2793756981
 51
261.7206243019
  0
LINE
  5
103
330
1F
100
AcDbEntity
  8
0
  6
Continuous
 62
     7
370
    30
100
AcDbLine
 10
22.4365652232
 20
4.6879714758
 30
0.0
 11
22.4365652232
 21
4.6252425357
 31
0.0
  0
LINE
  5
104
330
1F
100
AcDbEntity
  8
0
  6
Continuous
 62
     7
370
    30
100
AcDbLine
 10
22.5625652232
 20
4.6882426817
 30
0.0
 11
22.4365652232
 21
4.6879714758
 31
0.0
  0
LINE
  5
105
330
1F
100
AcDbEntity
  8
0
  6
Continuous
 62
     7
370
    30
100
AcDbLine
 10
22.5625652232
 20
4.6252425357
 30
0.0
 11
22.5625652232
 21
4.6882426817
 31
0.0
  0
ARC
  5
106
330
1F
100
AcDbEntity
  8
0
  6
Continuous
 62
     7
370
    30
100
AcDbCircle
 10
16.4995652232
 20
5.0581827741
 30
0.0
 40
0.4375000000000022
100
AcDbArc
 50
278.2793756981
 51
81.7206243019
  0
LINE
  5
107
330
1F
100
AcDbEntity
  8
0
  6
Continuous
 62
     7
370
    30
100
AcDbLine
 10
16.5625652232
 20
5.4281230125
 30
0.0
 11
16.5625652232
 21
5.4911230125
 31
0.0
  0
LINE
  5
108
330
1F
100
AcDbEntity
  8
0
  6
Continuous
 62
     7
370
    30
100
AcDbLine
 10
16.4365652232
 20
5.4281230125
 30
0.0
 11
16.5625652232
 21
5.4281230125
 31
0.0
  0
LINE
  5
109
330
1F
100
AcDbEntity
  8
0
  6
Continuous
 62
     7
370
    30
100
AcDbLine
 10
16.4365652232
 20
5.4911230125
 30
0.0
 11
16.4365652232
 21
5.4281230125
 31
0.0
  0
ARC
  5
10A
330
1F
100
AcDbEntity
  8
0
  6
Continuous
 62
     7
370
    30
100
AcDbCircle
 10
16.4995652232
 20
5.0581827741
 30
0.0
 40
0.4375000000000022
100
AcDbArc
 50
98.2793756981
 51
261.7206243019
  0
LINE
  5
10B
330
1F
100
AcDbEntity
  8
0
  6
Continuous
 62
     7
370
    30
100
AcDbLine
 10
16.4365652232
 20
4.6879714758
 30
0.0
 11
16.4365652232
 21
4.6252425357
 31
0.0
  0
LINE
  5
10C
330
1F
100
AcDbEntity
  8
0
  6
Continuous
 62
     7
370
    30
100
AcDbLine
 10
16.5625652232
 20
4.6882426817
 30
0.0
 11
16.4365652232
 21
4.6879714758
 31
0.0
  0
LINE
  5
10D
330
1F
100
AcDbEntity
  8
0
  6
Continuous
 62
     7
370
    30
100
AcDbLine
 10
16.5625652232
 20
4.6252425357
 30
0.0
 11
16.5625652232
 21
4.6882426817
 31
0.0
  0
LINE
  5
10E
330
1F
100
AcDbEntity
  8
0
  6
Continuous
 62
     7
370
    30
100
AcDbLine
 10
28.3945805795
 20
1.9646827741
 30
0.0
 11
28.4845805795
 21
1.9646827741
 31
0.0
  0
LINE
  5
10F
330
1F
100
AcDbEntity
  8
0
  6
Continuous
 62
     7
370
    30
100
AcDbLine
 10
10.5815805795
 20
1.9646827741
 30
0.0
 11
10.5145498669
 21
1.9646827741
 31
0.0
  0
LINE
  5
110
330
1F
100
AcDbEntity
  8
0
  6
Continuous
 62
     7
370
    30
100
AcDbLine
 10
28.5195805795
 20
8.1041981304
 30
0.0
 11
28.5195805795
 21
1.9646827741
 31
0.0
  0
LINE
  5
111
330
1F
100
AcDbEntity
  8
0
  6
Continuous
 62
     7
370
    30
100
AcDbLine
 10
28.4845805795
 20
1.9646827741
 30
0.0
 11
28.5195805795
 21
1.9646827741
 31
0.0
  0
LINE
  5
112
330
1F
100
AcDbEntity
  8
0
  6
Continuous
 62
     7
370
    30
100
AcDbLine
 10
10.5145498669
 20
1.9646827741
 30
0.0
 11
10.4795498669
 21
1.9646827741
 31
0.0
  0
LINE
  5
113
330
1F
100
AcDbEntity
  8
0
  6
Continuous
 62
     7
370
    30
100
AcDbLine
 10
10.4795498669
 20
1.9646827741
 30
0.0
 11
10.4795498669
 21
8.1041981304
 31
0.0
  0
LINE
  5
114
330
1F
100
AcDbEntity
  8
0
  6
Continuous
 62
     7
370
    30
100
AcDbLine
 10
16.4365652232
 20
4.6879714758
 30
0.0
 11
16.4365652232
 21
4.6882425357
 31
0.0
  0
LINE
  5
115
330
1F
100
AcDbEntity
  8
0
  6
Continuous
 62
     7
370
    30
100
AcDbLine
 10
16.4365652232
 20
4.6882425357
 30
0.0
 11
16.5624974218
 21
4.6882425357
 31
0.0
  0
LINE
  5
116
330
1F
100
AcDbEntity
  8
0
  6
Continuous
 62
     7
370
    30
100
AcDbLine
 10
22.4365652232
 20
4.6879714758
 30
0.0
 11
22.4365652232
 21
4.6882425357
 31
0.0
  0
LINE
  5
117
330
1F
100
AcDbEntity
  8
0
  6
Continuous
 62
     7
370
    30
100
AcDbLine
 10
22.4365652232
 20
4.6882425357
 30
0.0
 11
22.5624974218
 21
4.6882425357
 31
0.0
  0
LINE
  5
118
330
1F
100
AcDbEntity
  8
0
  6
Continuous
 62
     7
370
    30
100
AcDbLine
 10
28.4845805795
 20
52.5337134868
 30
0.0
 11
28.4845805795
 21
46.2382288431
 31
0.0
  0
LINE
  5
119
330
1F
100
AcDbEntity
  8
0
  6
Continuous
 62
     7
370
    30
100
AcDbLine
 10
28.4845805795
 20
52.5337134868
 30
0.0
 11
28.5195805795
 21
52.5337134868
 31
0.0
  0
LINE
  5
11A
330
1F
100
AcDbEntity
  8
0
  6
Continuous
 62
     7
370
    30
100
AcDbLine
 10
28.5195805795
 20
52.5337134868
 30
0.0
 11
28.5195805795
 21
46.2431981304
 31
0.0
  0
SPLINE
  5
11B
330
1F
100
AcDbEntity
  8
0
  6
Continuous
 62
     7
370
    30
100
AcDbSpline
210
0.0
220
0.0
230
1.0
 70
     8
 71
     3
 72
    11
 73
     7
 74
     0
 42
0.00000001
 43
0.00000001
 40
0.0
 40
0.0
 40
0.0
 40
0.0
 40
0.2499999999999841
 40
0.499999999999999
 40
0.7499999999999807
 40
1.0
 40
1.0
 40
1.0
 40
1.0
 10
28.51958057954032
 20
46.24319813044344
 30
0.0
 10
28.51905447449277
 20
46.24278402316428
 30
0.0
 10
28.51800226439765
 20
46.24195580860595
 30
0.0
 10
28.50990854193836
 20
46.24071348676848
 30
0.0
 10
28.49833946913996
 20
46.239471164931
 30
0.0
 10
28.48916687607353
 20
46.23864295037269
 30
0.0
 10
28.48458057954031
 20
46.23822884309352
 30
0.0
  0
ARC
  5
11C
330
1F
100
AcDbEntity
  8
0
  6
Continuous
 62
     7
370
    30
100
AcDbCircle
 10
16.4995652232
 20
49.4402134868
 30
0.0
 40
0.4375000000000177
100
AcDbArc
 50
278.2793756981
 51
81.7206243019
  0
LINE
  5
11D
330
1F
100
AcDbEntity
  8
0
  6
Continuous
 62
     7
370
    30
100
AcDbLine
 10
16.5625652232
 20
49.8101537251
 30
0.0
 11
16.5625652232
 21
49.8731537251
 31
0.0
  0
LINE
  5
11E
330
1F
100
AcDbEntity
  8
0
  6
Continuous
 62
     7
370
    30
100
AcDbLine
 10
16.4365652232
 20
49.8101537251
 30
0.0
 11
16.5625652232
 21
49.8101537251
 31
0.0
  0
LINE
  5
11F
330
1F
100
AcDbEntity
  8
0
  6
Continuous
 62
     7
370
    30
100
AcDbLine
 10
16.4365652232
 20
49.8731537251
 30
0.0
 11
16.4365652232
 21
49.8101537251
 31
0.0
  0
ARC
  5
120
330
1F
100
AcDbEntity
  8
0
  6
Continuous
 62
     7
370
    30
100
AcDbCircle
 10
16.4995652232
 20
49.4402134868
 30
0.0
 40
0.4375000000000101
100
AcDbArc
 50
98.2793756981
 51
261.7206243019
  0
LINE
  5
121
330
1F
100
AcDbEntity
  8
0
  6
Continuous
 62
     7
370
    30
100
AcDbLine
 10
16.4365652232
 20
49.0700021884
 30
0.0
 11
16.4365652232
 21
49.0072732484
 31
0.0
  0
LINE
  5
122
330
1F
100
AcDbEntity
  8
0
  6
Continuous
 62
     7
370
    30
100
AcDbLine
 10
16.5625652232
 20
49.0702733943
 30
0.0
 11
16.4365652232
 21
49.0700021884
 31
0.0
  0
LINE
  5
123
330
1F
100
AcDbEntity
  8
0
  6
Continuous
 62
     7
370
    30
100
AcDbLine
 10
16.5625652232
 20
49.0072732484
 30
0.0
 11
16.5625652232
 21
49.0702733943
 31
0.0
  0
ARC
  5
124
330
1F
100
AcDbEntity
  8
0
  6
Continuous
 62
     7
370
    30
100
AcDbCircle
 10
22.4995652232
 20
49.4402134868
 30
0.0
 40
0.4375000000000036
100
AcDbArc
 50
278.2793756981
 51
81.7206243019
  0
LINE
  5
125
330
1F
100
AcDbEntity
  8
0
  6
Continuous
 62
     7
370
    30
100
AcDbLine
 10
22.5625652232
 20
49.8101537251
 30
0.0
 11
22.5625652232
 21
49.8731537251
 31
0.0
  0
LINE
  5
126
330
1F
100
AcDbEntity
  8
0
  6
Continuous
 62
     7
370
    30
100
AcDbLine
 10
22.4365652232
 20
49.8101537251
 30
0.0
 11
22.5625652232
 21
49.8101537251
 31
0.0
  0
LINE
  5
127
330
1F
100
AcDbEntity
  8
0
  6
Continuous
 62
     7
370
    30
100
AcDbLine
 10
22.4365652232
 20
49.8731537251
 30
0.0
 11
22.4365652232
 21
49.8101537251
 31
0.0
  0
ARC
  5
128
330
1F
100
AcDbEntity
  8
0
  6
Continuous
 62
     7
370
    30
100
AcDbCircle
 10
22.4995652232
 20
49.4402134868
 30
0.0
 40
0.4375000000000101
100
AcDbArc
 50
98.2793756981
 51
261.7206243019
  0
LINE
  5
129
330
1F
100
AcDbEntity
  8
0
  6
Continuous
 62
     7
370
    30
100
AcDbLine
 10
22.4365652232
 20
49.0700021884
 30
0.0
 11
22.4365652232
 21
49.0072732484
 31
0.0
  0
LINE
  5
12A
330
1F
100
AcDbEntity
  8
0
  6
Continuous
 62
     7
370
    30
100
AcDbLine
 10
22.5625652232
 20
49.0702733943
 30
0.0
 11
22.4365652232
 21
49.0700021884
 31
0.0
  0
LINE
  5
12B
330
1F
100
AcDbEntity
  8
0
  6
Continuous
 62
     7
370
    30
100
AcDbLine
 10
22.5625652232
 20
49.0072732484
 30
0.0
 11
22.5625652232
 21
49.0702733943
 31
0.0
  0
LINE
  5
12C
330
1F
100
AcDbEntity
  8
0
  6
Continuous
 62
     7
370
    30
100
AcDbLine
 10
10.5815805795
 20
52.5337134868
 30
0.0
 11
10.5145498669
 21
52.5337134868
 31
0.0
  0
LINE
  5
12D
330
1F
100
AcDbEntity
  8
0
  6
Continuous
 62
     7
370
    30
100
AcDbLine
 10
28.3945805795
 20
52.5337134868
 30
0.0
 11
28.4845805795
 21
52.5337134868
 31
0.0
  0
LINE
  5
12E
330
1F
100
AcDbEntity
  8
0
  6
Continuous
 62
     7
370
    30
100
AcDbLine
 10
28.4845805795
 20
46.2382288431
 30
0.0
 11
28.4755498669
 21
46.2291981304
 31
0.0
  0
LINE
  5
12F
330
1F
100
AcDbEntity
  8
0
  6
Continuous
 62
     7
370
    30
100
AcDbLine
 10
10.5145498669
 20
46.2382288431
 30
0.0
 11
10.5235805795
 21
46.2291981304
 31
0.0
  0
LINE
  5
130
330
1F
100
AcDbEntity
  8
0
  6
Continuous
 62
     7
370
    30
100
AcDbLine
 10
10.5145498669
 20
46.2382288431
 30
0.0
 11
10.5145498669
 21
52.5337134868
 31
0.0
  0
SPLINE
  5
131
330
1F
100
AcDbEntity
  8
0
  6
Continuous
 62
     7
370
    30
100
AcDbSpline
210
0.0
220
0.0
230
1.0
 70
     8
 71
     3
 72
    11
 73
     7
 74
     0
 42
0.00000001
 43
0.00000001
 40
0.0
 40
0.0
 40
0.0
 40
0.0
 40
0.2499999999999991
 40
0.4999999999999774
 40
0.7499999999999776
 40
1.0
 40
1.0
 40
1.0
 40
1.0
 10
10.47954986689024
 20
46.2431981304433
 30
0.0
 10
10.48007597193779
 20
46.24278402316415
 30
0.0
 10
10.48112818203291
 20
46.24195580860582
 30
0.0
 10
10.4892219044922
 20
46.24071348676836
 30
0.0
 10
10.50079097729058
 20
46.23947116493088
 30
0.0
 10
10.50996357035702
 20
46.23864295037257
 30
0.0
 10
10.51454986689025
 20
46.2382288430934
 30
0.0
  0
LINE
  5
132
330
1F
100
AcDbEntity
  8
0
  6
Continuous
 62
     7
370
    30
100
AcDbLine
 10
10.4795498669
 20
46.2431981304
 30
0.0
 11
10.4795498669
 21
52.5337134868
 31
0.0
  0
LINE
  5
133
330
1F
100
AcDbEntity
  8
0
  6
Continuous
 62
     7
370
    30
100
AcDbLine
 10
10.5145498669
 20
52.5337134868
 30
0.0
 11
10.4795498669
 21
52.5337134868
 31
0.0
  0
LINE
  5
134
330
1F
100
AcDbEntity
  8
0
  6
Continuous
 62
     7
370
    30
100
AcDbLine
 10
10.5135498669
 20
46.2291981304
 30
0.0
 11
10.5135498669
 21
46.2383215958
 31
0.0
  0
LINE
  5
135
330
1F
100
AcDbEntity
  8
0
  6
Continuous
 62
     7
370
    30
100
AcDbLine
 10
10.4795498669
 20
46.2291981304
 30
0.0
 11
10.4795498669
 21
46.2431981304
 31
0.0
  0
LINE
  5
136
330
1F
100
AcDbEntity
  8
0
  6
Continuous
 62
     7
370
    30
100
AcDbLine
 10
28.5195805795
 20
46.2291981304
 30
0.0
 11
28.5195805795
 21
46.2431981304
 31
0.0
  0
LINE
  5
137
330
1F
100
AcDbEntity
  8
0
  6
Continuous
 62
     7
370
    30
100
AcDbLine
 10
28.4855805795
 20
46.2291981304
 30
0.0
 11
28.4855805795
 21
46.2383215958
 31
0.0
  0
LINE
  5
138
330
1F
100
AcDbEntity
  8
0
  6
Continuous
 62
     7
370
    30
100
AcDbLine
 10
16.4365652232
 20
49.0700021884
 30
0.0
 11
16.4365652232
 21
49.0702732484
 31
0.0
  0
LINE
  5
139
330
1F
100
AcDbEntity
  8
0
  6
Continuous
 62
     7
370
    30
100
AcDbLine
 10
16.4365652232
 20
49.0702732484
 30
0.0
 11
16.5624974218
 21
49.0702732484
 31
0.0
  0
LINE
  5
13A
330
1F
100
AcDbEntity
  8
0
  6
Continuous
 62
     7
370
    30
100
AcDbLine
 10
22.4365652232
 20
49.0700021884
 30
0.0
 11
22.4365652232
 21
49.0702732484
 31
0.0
  0
LINE
  5
13B
330
1F
100
AcDbEntity
  8
0
  6
Continuous
 62
     7
370
    30
100
AcDbLine
 10
22.4365652232
 20
49.0702732484
 30
0.0
 11
22.5624974218
 21
49.0702732484
 31
0.0
  0
LINE
  5
13C
330
1F
100
AcDbEntity
  8
0
  6
Continuous
 62
     7
370
    30
100
AcDbLine
 10
28.3945805795
 20
52.6882288431
 30
0.0
 11
28.3945805795
 21
52.2872288431
 31
0.0
  0
LINE
  5
13D
330
1F
100
AcDbEntity
  8
0
  6
Continuous
 62
     7
370
    30
100
AcDbLine
 10
10.5815805795
 20
52.2872288431
 30
0.0
 11
28.3945805795
 21
52.2872288431
 31
0.0
  0
LINE
  5
13E
330
1F
100
AcDbEntity
  8
0
  6
Continuous
 62
     7
370
    30
100
AcDbLine
 10
10.5815805795
 20
52.2872288431
 30
0.0
 11
10.5815805795
 21
52.6882288431
 31
0.0
  0
LINE
  5
13F
330
1F
100
AcDbEntity
  8
0
  6
Continuous
 62
     7
370
    30
100
AcDbLine
 10
10.5815805795
 20
52.6882288431
 30
0.0
 11
28.3945805795
 21
52.6882288431
 31
0.0
  0
LINE
  5
140
330
1F
100
AcDbEntity
  8
0
  6
Continuous
 62
     7
370
    30
100
AcDbLine
 10
10.5815805795
 20
52.7252288431
 30
0.0
 11
10.5815805795
 21
52.6882288431
 31
0.0
  0
LINE
  5
141
330
1F
100
AcDbEntity
  8
0
  6
Continuous
 62
     7
370
    30
100
AcDbLine
 10
10.5815805795
 20
52.7252288431
 30
0.0
 11
28.3945805795
 21
52.7252288431
 31
0.0
  0
LINE
  5
142
330
1F
100
AcDbEntity
  8
0
  6
Continuous
 62
     7
370
    30
100
AcDbLine
 10
28.3945805795
 20
52.6882288431
 30
0.0
 11
28.3945805795
 21
52.7252288431
 31
0.0
  0
LINE
  5
143
330
1F
100
AcDbEntity
  8
0
  6
Continuous
 62
     7
370
    30
100
AcDbLine
 10
10.5815805795
 20
2.2111674178
 30
0.0
 11
10.5815805795
 21
1.8101674178
 31
0.0
  0
LINE
  5
144
330
1F
100
AcDbEntity
  8
0
  6
Continuous
 62
     7
370
    30
100
AcDbLine
 10
10.5815805795
 20
2.2111674178
 30
0.0
 11
28.3945805795
 21
2.2111674178
 31
0.0
  0
LINE
  5
145
330
1F
100
AcDbEntity
  8
0
  6
Continuous
 62
     7
370
    30
100
AcDbLine
 10
28.3945805795
 20
2.2111674178
 30
0.0
 11
28.3945805795
 21
1.8101674178
 31
0.0
  0
LINE
  5
146
330
1F
100
AcDbEntity
  8
0
  6
Continuous
 62
     7
370
    30
100
AcDbLine
 10
28.3945805795
 20
1.8101674178
 30
0.0
 11
10.5815805795
 21
1.8101674178
 31
0.0
  0
LINE
  5
147
330
1F
100
AcDbEntity
  8
0
  6
Continuous
 62
     7
370
    30
100
AcDbLine
 10
28.3945805795
 20
1.7731674178
 30
0.0
 11
28.3945805795
 21
1.8101674178
 31
0.0
  0
LINE
  5
148
330
1F
100
AcDbEntity
  8
0
  6
Continuous
 62
     7
370
    30
100
AcDbLine
 10
28.3945805795
 20
1.7731674178
 30
0.0
 11
10.5815805795
 21
1.7731674178
 31
0.0
  0
LINE
  5
149
330
1F
100
AcDbEntity
  8
0
  6
Continuous
 62
     7
370
    30
100
AcDbLine
 10
10.5815805795
 20
1.8101674178
 30
0.0
 11
10.5815805795
 21
1.7731674178
 31
0.0
  0
LINE
  5
14A
330
1F
100
AcDbEntity
  8
0
  6
Continuous
 62
     7
370
    30
100
AcDbLine
 10
10.5815805795
 20
52.6301981304
 30
0.0
 11
10.5725805795
 21
52.6301981304
 31
0.0
  0
LINE
  5
14B
330
1F
100
AcDbEntity
  8
0
  6
Continuous
 62
     7
370
    30
100
AcDbLine
 10
10.5725805795
 20
52.6301981304
 30
0.0
 11
10.5725805795
 21
52.5337134868
 31
0.0
  0
SPLINE
  5
14C
330
1F
100
AcDbEntity
  8
0
  6
Continuous
 62
     7
370
    30
100
AcDbSpline
210
0.0
220
0.0
230
1.0
 70
     8
 71
     3
 72
     9
 73
     5
 74
     0
 42
0.00000001
 43
0.00000001
 40
0.0
 40
0.0
 40
0.0
 40
0.0
 40
0.5449356439850674
 40
1.0
 40
1.0
 40
1.0
 40
1.0
 10
10.5725805795402
 20
52.62919813044331
 30
0.0
 10
10.57302154741082
 20
52.63384796713176
 30
0.0
 10
10.57383075832498
 20
52.64238078516221
 30
0.0
 10
10.57915686035151
 20
52.64904264563416
 30
0.0
 10
10.58158057954028
 20
52.65207422087969
 30
0.0
  0
LINE
  5
14D
330
1F
100
AcDbEntity
  8
0
  6
Continuous
 62
     7
370
    30
100
AcDbLine
 10
10.5815805795
 20
1.8681981304
 30
0.0
 11
10.5725805795
 21
1.8681981304
 31
0.0
  0
LINE
  5
14E
330
1F
100
AcDbEntity
  8
0
  6
Continuous
 62
     7
370
    30
100
AcDbLine
 10
10.5725805795
 20
1.8681981304
 30
0.0
 11
10.5725805795
 21
1.9646827741
 31
0.0
  0
SPLINE
  5
14F
330
1F
100
AcDbEntity
  8
0
  6
Continuous
 62
     7
370
    30
100
AcDbSpline
210
0.0
220
0.0
230
1.0
 70
     8
 71
     3
 72
     9
 73
     5
 74
     0
 42
0.00000001
 43
0.00000001
 40
0.0
 40
0.0
 40
0.0
 40
0.0
 40
0.4550643560222932
 40
1.0
 40
1.0
 40
1.0
 40
1.0
 10
10.58158057954049
 20
1.84632204000665
 30
0.0
 10
10.57915686035164
 20
1.849353615252269
 30
0.0
 10
10.57383075832503
 20
1.856015475724312
 30
0.0
 10
10.57302154741084
 20
1.864548293754882
 30
0.0
 10
10.57258057954021
 20
1.869198130443315
 30
0.0
  0
LINE
  5
150
330
1F
100
AcDbEntity
  8
0
  6
Continuous
 62
     8
370
    30
100
AcDbLine
 10
4.7690593274
 20
36.50491714
 30
0.0
 11
4.7690593274
 21
36.0758457304
 31
0.0
  0
LINE
  5
151
330
1F
100
AcDbEntity
  8
0
  6
Continuous
 62
     8
370
    30
100
AcDbLine
 10
4.713071119
 20
36.0760442708
 30
0.0
 11
4.713071119
 21
36.5069553475
 31
0.0
  0
LINE
  5
152
330
1F
100
AcDbEntity
  8
0
  6
Continuous
 62
     8
370
    30
100
AcDbLine
 10
4.7690593274
 20
37.2549474275
 30
0.0
 11
4.7690593274
 21
36.8258563527
 31
0.0
  0
LINE
  5
153
330
1F
100
AcDbEntity
  8
0
  6
Continuous
 62
     8
370
    30
100
AcDbLine
 10
4.713071119
 20
36.8260452061
 30
0.0
 11
4.713071119
 21
37.2570024171
 31
0.0
  0
LINE
  5
154
330
1F
100
AcDbEntity
  8
0
  6
Continuous
 62
     8
370
    30
100
AcDbLine
 10
5.5380652232
 20
46.1591981304
 30
0.0
 11
5.5380652232
 21
46.1223592808
 31
0.0
  0
LINE
  5
155
330
1F
100
AcDbEntity
  8
0
  6
Continuous
 62
     8
370
    30
100
AcDbLine
 10
5.5380652232
 20
8.3340369801
 30
0.0
 11
5.5380652232
 21
8.1741981304
 31
0.0
  0
LINE
  5
156
330
1F
100
AcDbEntity
  8
0
  6
Continuous
 62
     8
370
    30
100
AcDbLine
 10
28.4845805795
 20
8.1041981304
 30
0.0
 11
28.4845805795
 21
1.9646827741
 31
0.0
  0
LINE
  5
157
330
1F
100
AcDbEntity
  8
0
  6
Continuous
 62
     8
370
    30
100
AcDbLine
 10
10.5145498669
 20
1.9646827741
 30
0.0
 11
10.5145498669
 21
8.1041981304
 31
0.0
  0
LINE
  5
158
330
1F
100
AcDbEntity
  8
FORMAT
100
AcDbLine
 10
83.7260829137
 20
28.0134298522
 30
0.0
 11
83.7260829137
 21
25.899005418
 31
0.0
  0
LINE
  5
159
330
1F
100
AcDbEntity
  8
FORMAT
100
AcDbLine
 10
83.7260829137
 20
25.899005418
 30
0.0
 11
87.3250583683
 21
25.899005418
 31
0.0
  0
LINE
  5
15A
330
1F
100
AcDbEntity
  8
FORMAT
100
AcDbLine
 10
87.3250583683
 20
25.899005418
 30
0.0
 11
87.3250583683
 21
24.0901677872
 31
0.0
  0
LINE
  5
15B
330
1F
100
AcDbEntity
  8
FORMAT
100
AcDbLine
 10
87.3250583683
 20
24.0901677872
 30
0.0
 11
90.1911082162
 21
26.9562176351
 31
0.0
  0
LINE
  5
15C
330
1F
100
AcDbEntity
  8
FORMAT
100
AcDbLine
 10
90.1911082162
 20
26.9562176351
 30
0.0
 11
87.3250583683
 21
29.8222674831
 31
0.0
  0
LINE
  5
15D
330
1F
100
AcDbEntity
  8
FORMAT
100
AcDbLine
 10
87.3250583683
 20
29.8222674831
 30
0.0
 11
87.3250583683
 21
28.0134298522
 31
0.0
  0
LINE
  5
15E
330
1F
100
AcDbEntity
  8
FORMAT
100
AcDbLine
 10
87.3250583683
 20
28.0134298522
 30
0.0
 11
83.7260829137
 21
28.0134298522
 31
0.0
  0
INSERT
  5
189
330
1F
100
AcDbEntity
  8
FORMAT
100
AcDbBlockReference
  2
SW_NOTE_0
 10
35.1993024504
 20
28.1498020112
 30
0.0
  0
ENDSEC
  0
SECTION
  2
OBJECTS
  0
DICTIONARY
  5
C
330
0
100
AcDbDictionary
281
     1
  3
ACAD_GROUP
350
D
  3
ACAD_LAYOUT
350
1A
  3
ACAD_MLINESTYLE
350
17
  3
ACAD_PLOTSETTINGS
350
19
  3
ACAD_PLOTSTYLENAME
350
E
  3
ACAD_SCALELIST
350
163
  3
AcDbVariableDictionary
350
18A
  0
DICTIONARY
  5
D
102
{ACAD_REACTORS
330
C
102
}
330
C
100
AcDbDictionary
281
     1
  0
DICTIONARY
  5
1A
102
{ACAD_REACTORS
330
C
102
}
330
C
100
AcDbDictionary
281
     1
  3
Layout1
350
1E
  3
Layout2
350
26
  3
Model
350
22
  0
DICTIONARY
  5
17
102
{ACAD_REACTORS
330
C
102
}
330
C
100
AcDbDictionary
281
     1
  3
Standard
350
18
  0
DICTIONARY
  5
19
102
{ACAD_REACTORS
330
C
102
}
330
C
100
AcDbDictionary
281
     1
  0
ACDBDICTIONARYWDFLT
  5
E
102
{ACAD_REACTORS
330
C
102
}
330
C
100
AcDbDictionary
281
     1
  3
Normal
350
F
100
AcDbDictionaryWithDefault
340
F
  0
DICTIONARY
  5
163
102
{ACAD_REACTORS
330
C
102
}
330
C
100
AcDbDictionary
281
     1
  3
A0
350
164
  3
A1
350
165
  3
A2
350
166
  3
A3
350
167
  3
A4
350
168
  3
A5
350
169
  3
A6
350
16A
  3
A7
350
16B
  3
A8
350
16C
  3
A9
350
16D
  3
B0
350
16E
  3
B1
350
16F
  3
B2
350
170
  3
B3
350
171
  3
B4
350
172
  3
B5
350
173
  3
B6
350
174
  3
B7
350
175
  3
B8
350
176
  3
B9
350
177
  3
C0
350
178
  3
C1
350
179
  3
C2
350
17A
  3
C3
350
17B
  3
C4
350
17C
  3
C5
350
17D
  3
C6
350
17E
  3
C7
350
17F
  3
C8
350
180
  3
C9
350
181
  3
D0
350
182
  3
D1
350
183
  3
D2
350
184
  0
DICTIONARY
  5
18A
102
{ACAD_REACTORS
330
C
102
}
330
C
100
AcDbDictionary
281
     1
  3
CANNOSCALE
350
18B
  0
LAYOUT
  5
1E
102
{ACAD_REACTORS
330
1A
102
}
330
1A
100
AcDbPlotSettings
  1

  2
none_device
  4

  6

 40
0.0
 41
0.0
 42
0.0
 43
0.0
 44
0.0
 45
0.0
 46
0.0
 47
0.0
 48
0.0
 49
0.0
140
0.0
141
0.0
142
1.0
143
1.0
 70
   688
 72
     0
 73
     0
 74
     5
  7

 75
    16
147
1.0
148
0.0
149
0.0
100
AcDbLayout
  1
Layout1
 70
     1
 71
     1
 10
0.0
 20
0.0
 11
12.0
 21
9.0
 12
0.0
 22
0.0
 32
0.0
 14
1.0000000000E+20
 24
1.0000000000E+20
 34
1.0000000000E+20
 15
-1.0000000000E+20
 25
-1.0000000000E+20
 35
-1.0000000000E+20
146
0.0
 13
0.0
 23
0.0
 33
0.0
 16
1.0
 26
0.0
 36
0.0
 17
0.0
 27
1.0
 37
0.0
 76
     0
330
1B
  0
LAYOUT
  5
26
102
{ACAD_REACTORS
330
1A
102
}
330
1A
100
AcDbPlotSettings
  1

  2
none_device
  4

  6

 40
0.0
 41
0.0
 42
0.0
 43
0.0
 44
0.0
 45
0.0
 46
0.0
 47
0.0
 48
0.0
 49
0.0
140
0.0
141
0.0
142
1.0
143
1.0
 70
   688
 72
     0
 73
     0
 74
     5
  7

 75
    16
147
1.0
148
0.0
149
0.0
100
AcDbLayout
  1
Layout2
 70
     1
 71
     2
 10
0.0
 20
0.0
 11
0.0
 21
0.0
 12
0.0
 22
0.0
 32
0.0
 14
0.0
 24
0.0
 34
0.0
 15
0.0
 25
0.0
 35
0.0
146
0.0
 13
0.0
 23
0.0
 33
0.0
 16
1.0
 26
0.0
 36
0.0
 17
0.0
 27
1.0
 37
0.0
 76
     0
330
23
  0
LAYOUT
  5
22
102
{ACAD_REACTORS
330
1A
102
}
330
1A
100
AcDbPlotSettings
  1

  2
none_device
  4

  6

 40
0.0
 41
0.0
 42
0.0
 43
0.0
 44
0.0
 45
0.0
 46
0.0
 47
0.0
 48
0.0
 49
0.0
140
0.0
141
0.0
142
1.0
143
1.0
 70
  1712
 72
     0
 73
     0
 74
     0
  7

 75
     0
147
1.0
148
0.0
149
0.0
100
AcDbLayout
  1
Model
 70
     1
 71
     0
 10
0.0
 20
0.0
 11
94.0
 21
54.0
 12
0.0
 22
0.0
 32
0.0
 14
0.0
 24
0.0
 34
0.0
 15
94.0
 25
54.0
 35
0.0
146
0.0
 13
0.0
 23
0.0
 33
0.0
 16
1.0
 26
0.0
 36
0.0
 17
0.0
 27
1.0
 37
0.0
 76
     0
330
1F
331
29
  0
MLINESTYLE
  5
18
102
{ACAD_REACTORS
330
17
102
}
330
17
100
AcDbMlineStyle
  2
Standard
 70
     0
  3

 62
   256
 51
90.0
 52
90.0
 71
     2
 49
0.5
 62
   256
  6
BYLAYER
 49
-0.5
 62
   256
  6
BYLAYER
  0
ACDBPLACEHOLDER
  5
F
102
{ACAD_REACTORS
330
E
102
}
330
E
  0
SCALE
  5
164
102
{ACAD_REACTORS
330
163
102
}
330
163
100
AcDbScale
 70
     0
300
1:1
140
1.0
141
1.0
290
     1
  0
SCALE
  5
165
102
{ACAD_REACTORS
330
163
102
}
330
163
100
AcDbScale
 70
     0
300
1:2
140
1.0
141
2.0
290
     0
  0
SCALE
  5
166
102
{ACAD_REACTORS
330
163
102
}
330
163
100
AcDbScale
 70
     0
300
1:4
140
1.0
141
4.0
290
     0
  0
SCALE
  5
167
102
{ACAD_REACTORS
330
163
102
}
330
163
100
AcDbScale
 70
     0
300
1:5
140
1.0
141
5.0
290
     0
  0
SCALE
  5
168
102
{ACAD_REACTORS
330
163
102
}
330
163
100
AcDbScale
 70
     0
300
1:8
140
1.0
141
8.0
290
     0
  0
SCALE
  5
169
102
{ACAD_REACTORS
330
163
102
}
330
163
100
AcDbScale
 70
     0
300
1:10
140
1.0
141
10.0
290
     0
  0
SCALE
  5
16A
102
{ACAD_REACTORS
330
163
102
}
330
163
100
AcDbScale
 70
     0
300
1:16
140
1.0
141
16.0
290
     0
  0
SCALE
  5
16B
102
{ACAD_REACTORS
330
163
102
}
330
163
100
AcDbScale
 70
     0
300
1:20
140
1.0
141
20.0
290
     0
  0
SCALE
  5
16C
102
{ACAD_REACTORS
330
163
102
}
330
163
100
AcDbScale
 70
     0
300
1:30
140
1.0
141
30.0
290
     0
  0
SCALE
  5
16D
102
{ACAD_REACTORS
330
163
102
}
330
163
100
AcDbScale
 70
     0
300
1:40
140
1.0
141
40.0
290
     0
  0
SCALE
  5
16E
102
{ACAD_REACTORS
330
163
102
}
330
163
100
AcDbScale
 70
     0
300
1:50
140
1.0
141
50.0
290
     0
  0
SCALE
  5
16F
102
{ACAD_REACTORS
330
163
102
}
330
163
100
AcDbScale
 70
     0
300
1:100
140
1.0
141
100.0
290
     0
  0
SCALE
  5
170
102
{ACAD_REACTORS
330
163
102
}
330
163
100
AcDbScale
 70
     0
300
2:1
140
2.0
141
1.0
290
     0
  0
SCALE
  5
171
102
{ACAD_REACTORS
330
163
102
}
330
163
100
AcDbScale
 70
     0
300
4:1
140
4.0
141
1.0
290
     0
  0
SCALE
  5
172
102
{ACAD_REACTORS
330
163
102
}
330
163
100
AcDbScale
 70
     0
300
8:1
140
8.0
141
1.0
290
     0
  0
SCALE
  5
173
102
{ACAD_REACTORS
330
163
102
}
330
163
100
AcDbScale
 70
     0
300
10:1
140
10.0
141
1.0
290
     0
  0
SCALE
  5
174
102
{ACAD_REACTORS
330
163
102
}
330
163
100
AcDbScale
 70
     0
300
100:1
140
100.0
141
1.0
290
     0
  0
SCALE
  5
175
102
{ACAD_REACTORS
330
163
102
}
330
163
100
AcDbScale
 70
     0
300
1/128" = 1'-0"
140
0.0078125
141
12.0
290
     0
  0
SCALE
  5
176
102
{ACAD_REACTORS
330
163
102
}
330
163
100
AcDbScale
 70
     0
300
1/64" = 1'-0"
140
0.015625
141
12.0
290
     0
  0
SCALE
  5
177
102
{ACAD_REACTORS
330
163
102
}
330
163
100
AcDbScale
 70
     0
300
1/32" = 1'-0"
140
0.03125
141
12.0
290
     0
  0
SCALE
  5
178
102
{ACAD_REACTORS
330
163
102
}
330
163
100
AcDbScale
 70
     0
300
1/16" = 1'-0"
140
0.0625
141
12.0
290
     0
  0
SCALE
  5
179
102
{ACAD_REACTORS
330
163
102
}
330
163
100
AcDbScale
 70
     0
300
3/32" = 1'-0"
140
0.09375
141
12.0
290
     0
  0
SCALE
  5
17A
102
{ACAD_REACTORS
330
163
102
}
330
163
100
AcDbScale
 70
     0
300
1/8" = 1'-0"
140
0.125
141
12.0
290
     0
  0
SCALE
  5
17B
102
{ACAD_REACTORS
330
163
102
}
330
163
100
AcDbScale
 70
     0
300
3/16" = 1'-0"
140
0.1875
141
12.0
290
     0
  0
SCALE
  5
17C
102
{ACAD_REACTORS
330
163
102
}
330
163
100
AcDbScale
 70
     0
300
1/4" = 1'-0"
140
0.25
141
12.0
290
     0
  0
SCALE
  5
17D
102
{ACAD_REACTORS
330
163
102
}
330
163
100
AcDbScale
 70
     0
300
3/8" = 1'-0"
140
0.375
141
12.0
290
     0
  0
SCALE
  5
17E
102
{ACAD_REACTORS
330
163
102
}
330
163
100
AcDbScale
 70
     0
300
1/2" = 1'-0"
140
0.5
141
12.0
290
     0
  0
SCALE
  5
17F
102
{ACAD_REACTORS
330
163
102
}
330
163
100
AcDbScale
 70
     0
300
3/4" = 1'-0"
140
0.75
141
12.0
290
     0
  0
SCALE
  5
180
102
{ACAD_REACTORS
330
163
102
}
330
163
100
AcDbScale
 70
     0
300
1" = 1'-0"
140
1.0
141
12.0
290
     0
  0
SCALE
  5
181
102
{ACAD_REACTORS
330
163
102
}
330
163
100
AcDbScale
 70
     0
300
1-1/2" = 1'-0"
140
1.5
141
12.0
290
     0
  0
SCALE
  5
182
102
{ACAD_REACTORS
330
163
102
}
330
163
100
AcDbScale
 70
     0
300
3" = 1'-0"
140
3.0
141
12.0
290
     0
  0
SCALE
  5
183
102
{ACAD_REACTORS
330
163
102
}
330
163
100
AcDbScale
 70
     0
300
6" = 1'-0"
140
6.0
141
12.0
290
     0
  0
SCALE
  5
184
102
{ACAD_REACTORS
330
163
102
}
330
163
100
AcDbScale
 70
     0
300
1'-0" = 1'-0"
140
12.0
141
12.0
290
     0
  0
DICTIONARYVAR
  5
18B
102
{ACAD_REACTORS
330
18A
102
}
330
18A
100
DictionaryVariables
280
     0
  1
1:1
  0
ENDSEC
  0
EOF
